0
SECTION
2
HEADER
9
$INSUNITS
70
4
9
$ACADVER
1
AC1014
9
$HANDSEED
5
FFFF
0
ENDSEC
0
SECTION
2
TABLES
0
TABLE
2
VPORT
5
8
100
AcDbSymbolTable
0
ENDTAB
0
TABLE
2
LTYPE
5
5
100
AcDbSymbolTable
0
LTYPE
5
14
100
AcDbSymbolTableRecord
100
AcDbLinetypeTableRecord
2
BYBLOCK
70
0
0
LTYPE
5
15
100
AcDbSymbolTableRecord
100
AcDbLinetypeTableRecord
2
BYLAYER
70
0
0
ENDTAB
0
TABLE
2
LAYER
5
2
100
AcDbSymbolTable
70
2
0
LAYER
5
50
100
AcDbSymbolTableRecord
100
AcDbLayerTableRecord
2
0
70
0
6
CONTINUOUS
0
ENDTAB
0
TABLE
2
STYLE
5
3
100
AcDbSymbolTable
70
1
0
STYLE
5
11
100
AcDbSymbolTableRecord
100
AcDbTextStyleTableRecord
2
STANDARD
70
0
0
ENDTAB
0
TABLE
2
VIEW
5
6
100
AcDbSymbolTable
70
0
0
ENDTAB
0
TABLE
2
UCS
5
7
100
AcDbSymbolTable
70
0
0
ENDTAB
0
TABLE
2
APPID
5
9
100
AcDbSymbolTable
70
2
0
APPID
5
12
100
AcDbSymbolTableRecord
100
AcDbRegAppTableRecord
2
ACAD
70
0
0
ENDTAB
0
TABLE
2
DIMSTYLE
5
A
100
AcDbSymbolTable
70
1
0
ENDTAB
0
TABLE
2
BLOCK_RECORD
5
1
100
AcDbSymbolTable
70
1
0
BLOCK_RECORD
5
1F
100
AcDbSymbolTableRecord
100
AcDbBlockTableRecord
2
*MODEL_SPACE
0
BLOCK_RECORD
5
1B
100
AcDbSymbolTableRecord
100
AcDbBlockTableRecord
2
*PAPER_SPACE
0
ENDTAB
0
ENDSEC
0
SECTION
2
BLOCKS
0
BLOCK
5
20
100
AcDbEntity
100
AcDbBlockBegin
2
*MODEL_SPACE
0
ENDBLK
5
21
100
AcDbEntity
100
AcDbBlockEnd
0
BLOCK
5
1C
100
AcDbEntity
100
AcDbBlockBegin
2
*PAPER_SPACE
0
ENDBLK
5
1D
100
AcDbEntity
100
AcDbBlockEnd
0
ENDSEC
0
SECTION
2
ENTITIES
0
LINE
5
100
100
AcDbEntity
8
0
100
AcDbLine
10
1487.2415304175915
20
-554.04551670036369
30
0
11
1472.4967936203889
21
-564.36989255468131
31
0
0
LINE
5
101
100
AcDbEntity
8
0
100
AcDbLine
10
1472.4967936203889
20
-564.36989255468131
30
0
11
1618.340665012624
21
-772.6565267790977
31
0
0
LINE
5
102
100
AcDbEntity
8
0
100
AcDbLine
10
1618.340665012624
20
-772.6565267790977
30
0
11
2859.296071041897
21
96.269803104531633
31
0
0
SPLINE
5
103
100
AcDbEntity
8
0
100
AcDbSpline
70
0
71
3
72
11
73
7
74
0
42
0.000000001
43
0.0000000001
44
0.0000000001
40
-0.071872764375778386
40
-0.071872764375778386
40
-0.071872764375778386
40
-0.071872764375778386
40
-0.05027175171881805
40
-0.05027175171881805
40
-0.05027175171881805
40
0
40
0
40
0
40
0
10
2859.296071041897
20
96.269803104531206
30
0
10
2876.1340613593661
20
82.092887754798198
30
0
10
2892.8444498885819
20
66.762964376592322
30
0
10
2909.4052487189088
20
50.205743698615777
30
0
10
2947.9469773075089
20
11.67234249676369
30
0
10
2985.6666051792758
20
-33.518490355941992
30
0
10
3022.3350388690988
20
-85.886440840428406
30
0
0
LINE
5
104
100
AcDbEntity
8
0
100
AcDbLine
10
3022.3350388690997
20
-85.886440840428406
30
0
11
3079.6756819693314
21
-45.736090295859888
31
0
0
SPLINE
5
105
100
AcDbEntity
8
0
100
AcDbSpline
70
4
71
5
72
21
73
15
74
0
42
0.000000001
43
0.0000000001
44
0.0000000001
40
0
40
0
40
0
40
0
40
0
40
0
40
0.10000000000000001
40
0.20000000000000001
40
0.30000000000000004
40
0.40000000000000002
40
0.5
40
0.59999999999999998
40
0.69999999999999996
40
0.79999999999999993
40
0.89999999999999991
40
1
40
1
40
1
40
1
40
1
40
1
41
1
41
1
41
1
41
1
41
1
41
1
41
1
41
1
41
1
41
1
41
1
41
1
41
1
41
1
41
1
10
3079.6756819693314
20
-45.736090295860095
30
0
10
3033.4435379944075
20
20.290253969355945
30
0
10
2937.2887398655421
20
136.0193528053648
30
0
10
2781.9807685343121
20
260.64266672352005
30
0
10
2560.230442430257
20
337.41786392817602
30
0
10
2295.3924756247097
20
328.6814341076817
30
0
10
2081.2792630382737
20
266.30769777507794
30
0
10
1938.1966775931755
20
192.07865293275091
30
0
10
1854.1229370575863
20
126.3210427755925
30
0
10
1748.3582862171074
20
44.975498158882488
30
0
10
1618.8357241497035
20
-71.860474582363736
30
0
10
1518.4179017750639
20
-208.44543656468716
30
0
10
1462.4927458642012
20
-341.16532044544726
30
0
10
1436.6600221522158
20
-443.90410215772221
30
0
10
1426.6106787123115
20
-498.83772901155794
30
0
0
LINE
5
106
100
AcDbEntity
8
0
100
AcDbLine
10
1426.6106787123115
20
-498.83772901155794
30
0
11
1432.3464430758213
21
-507.02924945444835
31
0
0
LINE
5
107
100
AcDbEntity
8
0
100
AcDbLine
10
1432.3464430758213
20
-507.02924945444835
30
0
11
1447.0911798730242
21
-496.70487360013067
31
0
0
LINE
5
108
100
AcDbEntity
8
0
100
AcDbLine
10
1447.0911798730242
20
-496.70487360013067
30
0
11
1487.2415304175915
21
-554.04551670036369
31
0
0
LINE
5
109
100
AcDbEntity
8
0
100
AcDbLine
10
3715.3299282187227
20
53.8661415534051
30
0
11
3730.0746650159344
21
64.190517407709251
31
0
0
LINE
5
110
100
AcDbEntity
8
0
100
AcDbLine
10
3730.0746650159344
20
64.190517407709251
30
0
11
3584.2307936238885
21
272.47715163225922
31
0
0
LINE
5
111
100
AcDbEntity
8
0
100
AcDbLine
10
3584.2307936238885
20
272.47715163225922
30
0
11
2343.2753875938242
21
-596.44917825023538
31
0
0
SPLINE
5
112
100
AcDbEntity
8
0
100
AcDbSpline
70
0
71
3
72
11
73
7
74
0
42
0.000000001
43
0.0000000001
44
0.0000000001
40
-0.071872764375778386
40
-0.071872764375778386
40
-0.071872764375778386
40
-0.071872764375778386
40
-0.05027175171881805
40
-0.05027175171881805
40
-0.05027175171881805
40
0
40
0
40
0
40
0
10
2343.2753875938251
20
-596.44917825023526
30
0
10
2326.4373972763688
20
-582.27226290048691
30
0
10
2309.7270087471675
20
-566.94233952226591
30
0
10
2293.1662099168552
20
-550.38511884427407
30
0
10
2254.6244813282897
20
-511.85171764238675
30
0
10
2216.9048534565636
20
-466.66088478964667
30
0
10
2180.2364197667885
20
-414.29293430512672
30
0
0
LINE
5
113
100
AcDbEntity
8
0
100
AcDbLine
10
2180.2364197667885
20
-414.29293430512678
30
0
11
2122.8957766665194
21
-454.44328484964279
31
0
0
SPLINE
5
114
100
AcDbEntity
8
0
100
AcDbSpline
70
4
71
5
72
21
73
15
74
0
42
0.000000001
43
0.0000000001
44
0.0000000001
40
0
40
0
40
0
40
0
40
0
40
0
40
0.10000000000000001
40
0.20000000000000001
40
0.30000000000000004
40
0.40000000000000002
40
0.5
40
0.59999999999999998
40
0.69999999999999996
40
0.79999999999999993
40
0.89999999999999991
40
1
40
1
40
1
40
1
40
1
40
1
41
1
41
1
41
1
41
1
41
1
41
1
41
1
41
1
41
1
41
1
41
1
41
1
41
1
41
1
41
1
10
2122.8957766665189
20
-454.44328484964274
30
0
10
2169.1279206413833
20
-520.46962911490084
30
0
10
2265.2827187701432
20
-636.19872795099752
30
0
10
2420.5906901012618
20
-760.82204186929494
30
0
10
2642.3410162052469
20
-837.59723907415355
30
0
10
2907.1789830108019
20
-828.86080925390138
30
0
10
3121.2921955972956
20
-766.48707292149311
30
0
10
3264.3747810424611
20
-692.25802807929676
30
0
10
3348.4485215781106
20
-626.50041792221487
30
0
10
3454.2131724186629
20
-545.15487330560177
30
0
10
3583.735734486173
20
-428.31890056447435
30
0
10
3684.153556860937
20
-291.73393858224273
30
0
10
3740.0787127719204
20
-159.01405470153378
30
0
10
3765.9114364839988
20
-56.275272989282712
30
0
10
3775.9607799239529
20
-1.3416461354557896
30
0
0
LINE
5
115
100
AcDbEntity
8
0
100
AcDbLine
10
3775.9607799239529
20
-1.3416461354557427
30
0
11
3770.2250155604506
21
6.849874307439876
31
0
0
LINE
5
116
100
AcDbEntity
8
0
100
AcDbLine
10
3770.2250155604506
20
6.849874307439876
30
0
11
3755.4802787632384
21
-3.4745015468644191
31
0
0
LINE
5
117
100
AcDbEntity
8
0
100
AcDbLine
10
3755.4802787632384
20
-3.4745015468644191
30
0
11
3715.3299282187227
21
53.8661415534051
31
0
0
LINE
5
118
100
AcDbEntity
8
0
100
AcDbLine
10
3796.2016074480102
20
347.99437166273947
30
0
11
3796.2016074480102
21
-852.00562833726053
31
0
0
LINE
5
119
100
AcDbEntity
8
0
100
AcDbLine
10
1396.2016074480102
20
347.99437166273947
30
0
11
3796.2016074480102
21
347.99437166273947
31
0
0
LINE
5
120
100
AcDbEntity
8
0
100
AcDbLine
10
1396.2016074480102
20
-852.00562833726053
30
0
11
1396.2016074480102
21
347.99437166273947
31
0
0
LINE
5
121
100
AcDbEntity
8
0
100
AcDbLine
10
3796.2016074480102
20
-852.00562833726053
30
0
11
1396.2016074480102
21
-852.00562833726053
31
0
0
ENDSEC
0
SECTION
2
OBJECTS
0
DICTIONARY
5
C
100
AcDbDictionary
3
ACAD_GROUP
350
D
3
ACAD_MLINESTYLE
350
17
0
DICTIONARY
5
D
100
AcDbDictionary
0
DICTIONARY
5
1A
330
C
100
AcDbDictionary
0
DICTIONARY
5
17
100
AcDbDictionary
0
ENDSEC
0
EOF
