0
SECTION
2
HEADER
9
$INSUNITS
70
4
9
$ACADVER
1
AC1014
9
$HANDSEED
5
FFFF
0
ENDSEC
0
SECTION
2
TABLES
0
TABLE
2
VPORT
5
8
100
AcDbSymbolTable
0
ENDTAB
0
TABLE
2
LTYPE
5
5
100
AcDbSymbolTable
0
LTYPE
5
14
100
AcDbSymbolTableRecord
100
AcDbLinetypeTableRecord
2
BYBLOCK
70
0
0
LTYPE
5
15
100
AcDbSymbolTableRecord
100
AcDbLinetypeTableRecord
2
BYLAYER
70
0
0
ENDTAB
0
TABLE
2
LAYER
5
2
100
AcDbSymbolTable
70
2
0
LAYER
5
50
100
AcDbSymbolTableRecord
100
AcDbLayerTableRecord
2
0
70
0
6
CONTINUOUS
0
ENDTAB
0
TABLE
2
STYLE
5
3
100
AcDbSymbolTable
70
1
0
STYLE
5
11
100
AcDbSymbolTableRecord
100
AcDbTextStyleTableRecord
2
STANDARD
70
0
0
ENDTAB
0
TABLE
2
VIEW
5
6
100
AcDbSymbolTable
70
0
0
ENDTAB
0
TABLE
2
UCS
5
7
100
AcDbSymbolTable
70
0
0
ENDTAB
0
TABLE
2
APPID
5
9
100
AcDbSymbolTable
70
2
0
APPID
5
12
100
AcDbSymbolTableRecord
100
AcDbRegAppTableRecord
2
ACAD
70
0
0
ENDTAB
0
TABLE
2
DIMSTYLE
5
A
100
AcDbSymbolTable
70
1
0
ENDTAB
0
TABLE
2
BLOCK_RECORD
5
1
100
AcDbSymbolTable
70
1
0
BLOCK_RECORD
5
1F
100
AcDbSymbolTableRecord
100
AcDbBlockTableRecord
2
*MODEL_SPACE
0
BLOCK_RECORD
5
1B
100
AcDbSymbolTableRecord
100
AcDbBlockTableRecord
2
*PAPER_SPACE
0
ENDTAB
0
ENDSEC
0
SECTION
2
BLOCKS
0
BLOCK
5
20
100
AcDbEntity
100
AcDbBlockBegin
2
*MODEL_SPACE
0
ENDBLK
5
21
100
AcDbEntity
100
AcDbBlockEnd
0
BLOCK
5
1C
100
AcDbEntity
100
AcDbBlockBegin
2
*PAPER_SPACE
0
ENDBLK
5
1D
100
AcDbEntity
100
AcDbBlockEnd
0
ENDSEC
0
SECTION
2
ENTITIES
0
LINE
5
100
100
AcDbEntity
8
0
100
AcDbLine
10
1374.8287160544817
20
518.53103227251552
30
0
11
1374.8287160544817
21
1718.5310322725154
31
0
0
LWPOLYLINE
5
101
100
AcDbEntity
8
0
100
AcDbPolyline
90
7
70
1
43
0.0
10
1410.5036291944716
20
1391.7804906411993
10
1525.2189164646807
20
1227.9500817834005
10
1566.1765186791306
20
1256.628903600953
10
1537.4976968615781
20
1297.5865058154027
10
1603.0128598698227
20
1465.5381756969584
10
1643.9704620842717
20
1494.2169975145111
10
1615.2916402667199
20
1535.1745997289604
0
LWPOLYLINE
5
102
100
AcDbEntity
8
0
100
AcDbPolyline
90
7
70
1
43
0.0
10
1394.8287160544817
20
1698.5310322725154
10
1394.8287160544817
20
1498.5310322725154
10
1444.8287160544817
20
1498.5310322725154
10
1444.8287160544817
20
1548.5310322725154
10
1594.8287160544817
20
1648.5310322725152
10
1644.8287160544817
20
1648.5310322725152
10
1644.8287160544817
20
1698.5310322725152
0
LINE
5
103
100
AcDbEntity
8
0
100
AcDbLine
10
1374.8287160544817
20
1718.5310322725154
30
0
11
3774.8287160544814
21
1718.5310322725154
31
0
0
ARC
5
104
100
AcDbEntity
8
0
100
AcDbCircle
10
2174.3221057026653
20
1633.3085037716905
30
0
40
3.2499999999996056
210
0
220
0
230
1
100
AcDbArc
50
-215.0000000001485
51
54.999999999848214
0
LINE
5
105
100
AcDbEntity
8
0
100
AcDbLine
10
2171.6598615587313
20
1635.1726271898381
30
0
11
2119.6437067464713
21
1671.594730898262
31
0
0
ARC
5
106
100
AcDbEntity
8
0
100
AcDbCircle
10
2116.9814626025382
20
1673.4588543164102
30
0
40
3.2499999999998384
210
0
220
-0
230
1
100
AcDbArc
50
54.999999999857074
51
324.99999999983248
0
LINE
5
107
100
AcDbEntity
8
0
100
AcDbLine
10
2118.8455860206855
20
1676.1210984603445
30
0
11
2127.305838456894
21
1688.2035911135856
31
0
0
LINE
5
108
100
AcDbEntity
8
0
100
AcDbLine
10
2127.305838456894
20
1688.2035911135856
30
0
11
2119.114318014018
21
1693.9393554771175
31
0
0
SPLINE
5
109
100
AcDbEntity
8
0
100
AcDbSpline
70
0
71
3
72
20
73
16
74
0
42
0.000000001
43
0.0000000001
44
0.0000000001
40
-64.099466952451905
40
-64.099466952451905
40
-64.099466952451905
40
-64.099466952451905
40
-57.834734917325555
40
-57.834734917325555
40
-50.965632400182841
40
-50.965632400182841
40
-42.864440280181022
40
-42.864440280181022
40
-37.106764531170072
40
-37.106764531170072
40
-31.255595576643344
40
-31.255595576643344
40
-23.942560065134874
40
-23.942560065134874
40
-14.398609325307422
40
-14.398609325307422
40
-14.398609325307422
40
-14.398609325307422
10
2119.1143180140189
20
1693.9393554771175
30
0
10
2067.9223440408023
20
1684.3943223686206
30
0
10
2018.3020331127163
20
1671.1537453227152
30
0
10
1916.2543071519149
20
1630.6692872802489
30
0
10
1867.0484845345118
20
1603.3607530462402
30
0
10
1766.7980249500902
20
1530.9678687495623
30
0
10
1714.2031171768049
20
1481.385975677942
30
0
10
1646.4059633116522
20
1388.9330658401889
30
0
10
1623.8786905883812
20
1347.1038005519279
30
0
10
1596.2146108282377
20
1254.8824935332937
30
0
10
1592.2809792882754
20
1207.460917243435
30
0
10
1603.6388015570242
20
1099.0285054627402
30
0
10
1623.6250878843798
20
1040.866986521145
30
0
10
1686.0505932943965
20
915.90249921922521
30
0
10
1733.3985945738721
20
852.19508930806546
30
0
10
1774.9754818191677
20
803.33819672309971
30
0
0
LINE
5
110
100
AcDbEntity
8
0
100
AcDbLine
10
1805.2036489579036
20
782.17220622617958
30
0
11
1774.9754818191675
21
803.33819672309983
31
0
0
LINE
5
111
100
AcDbEntity
8
0
100
AcDbLine
10
1805.2036489579036
20
782.17220622617958
30
0
11
1961.5238916686915
21
672.71559390472703
31
0
0
LINE
5
112
100
AcDbEntity
8
0
100
AcDbLine
10
1961.5238916686915
20
672.71559390472703
30
0
11
1995.5223327309648
21
721.27039973988963
31
0
0
LINE
5
113
100
AcDbEntity
8
0
100
AcDbLine
10
1995.5223327309648
20
721.27039973988963
30
0
11
1851.8930448438323
21
821.84070982669141
31
0
0
SPLINE
5
114
100
AcDbEntity
8
0
100
AcDbSpline
70
4
71
5
72
16
73
10
74
0
42
0.000000001
43
0.0000000001
44
0.0000000001
40
-1
40
-1
40
-1
40
-1
40
-1
40
-1
40
-0.80000000000000004
40
-0.60000000000000009
40
-0.40000000000000002
40
-0.20000000000000001
40
0
40
0
40
0
40
0
40
0
40
0
41
1
41
1
41
1
41
1
41
1
41
1
41
1
41
1
41
1
41
1
10
1851.8930448438327
20
821.84070982669164
30
0
10
1841.2941986769954
20
829.26210180907731
30
0
10
1819.3510750149876
20
847.1921570827692
30
0
10
1784.2036099261918
20
883.34090079067778
30
0
10
1734.7913256344293
20
947.64814105284472
30
0
10
1679.4017706803215
20
1046.9980652240524
30
0
10
1651.7549681846219
20
1137.3952957799236
30
0
10
1647.4569657360939
20
1210.5228754443219
30
0
10
1653.2563501155159
20
1261.707501983929
30
0
10
1658.3242674253843
20
1287.9084326354337
30
0
0
SPLINE
5
115
100
AcDbEntity
8
0
100
AcDbSpline
70
0
71
3
72
26
73
22
74
0
42
0.000000001
43
0.0000000001
44
0.0000000001
40
37.151184953892376
40
37.151184953892376
40
37.151184953892376
40
37.151184953892376
40
38.703884548139477
40
38.703884548139477
40
38.703884548139477
40
42.864440280181022
40
42.864440280181022
40
42.864440280181022
40
45.840269386271984
40
45.840269386271984
40
45.840269386271984
40
50.965632400182841
40
50.965632400182841
40
50.965632400182841
40
57.834734917325555
40
57.834734917325555
40
57.834734917325555
40
58.156007922782408
40
58.156007922782408
40
58.156007922782408
40
59.292403945364612
40
59.292403945364612
40
59.292403945364612
40
59.292403945364612
10
1658.3242674253836
20
1287.9084326354325
30
0
10
1661.5395744158586
20
1298.5081515554111
30
0
10
1665.3171767450449
20
1308.9068998097282
30
0
10
1669.622431628015
20
1319.1310647030807
30
0
10
1681.1586315134305
20
1346.5273543717228
30
0
10
1696.5042902490013
20
1372.6989480687935
30
0
10
1714.8929276280421
20
1397.7749717175882
30
0
10
1728.036004997261
20
1415.6977852537402
30
0
10
1742.9692815327621
20
1433.3520088690152
30
0
10
1759.1233318743498
20
1450.2977639143248
30
0
10
1786.9459551480304
20
1479.4839648202351
30
0
10
1818.4010732113716
20
1506.5577834582182
30
0
10
1850.3204865428229
20
1529.6074373520821
30
0
10
1893.1447718752979
20
1560.5317198542591
30
0
10
1938.5985458558303
20
1585.7427413595624
30
0
10
1988.0641766064828
20
1605.3667872049168
30
0
10
1990.3786416477953
20
1606.2849836857652
30
0
10
1992.6962203810244
20
1607.1887005331059
30
0
10
1995.017097080131
20
1608.0782528716263
30
0
10
2003.2264237430304
20
1611.2247473551456
30
0
10
2011.4783426310646
20
1614.1948945368747
30
0
10
2019.7795653964647
20
1617.0013474148595
30
0
0
LINE
5
116
100
AcDbEntity
8
0
100
AcDbLine
10
2019.7795653964649
20
1617.0013474148595
30
0
11
2197.7325136234012
21
1492.397351619049
31
0
0
LINE
5
117
100
AcDbEntity
8
0
100
AcDbLine
10
2197.7325136234012
20
1492.397351619049
30
0
11
2266.5616859857773
21
1590.6955969335559
31
0
0
LINE
5
118
100
AcDbEntity
8
0
100
AcDbLine
10
2266.5616859857773
20
1590.6955969335559
30
0
11
2184.6464815570221
21
1648.0532405688675
31
0
0
LINE
5
119
100
AcDbEntity
8
0
100
AcDbLine
10
2184.6464815570221
20
1648.0532405688675
30
0
11
2176.1862291208131
21
1635.9707479156245
31
0
0
SPLINE
5
120
100
AcDbEntity
8
0
100
AcDbSpline
70
4
71
5
72
16
73
10
74
0
42
0.000000001
43
0.0000000001
44
0.0000000001
40
0
40
0
40
0
40
0
40
0
40
0
40
0.20000000000000001
40
0.40000000000000002
40
0.60000000000000009
40
0.80000000000000004
40
1
40
1
40
1
40
1
40
1
40
1
41
1
41
1
41
1
41
1
41
1
41
1
41
1
41
1
41
1
41
1
10
1747.4814445733978
20
1183.3625372813713
30
0
10
1753.1638790606708
20
1196.2702078075263
30
0
10
1765.3838873285292
20
1222.0588769107603
30
0
10
1786.2782390150826
20
1260.6618983599656
30
0
10
1819.6224550438958
20
1311.9615129752929
30
0
10
1874.9169179926757
20
1375.6614021071653
30
0
10
1936.906646161892
20
1426.0675580218613
30
0
10
1998.4019211299483
20
1463.404229336287
30
0
10
2047.1337952206125
20
1488.054086745869
30
0
10
2073.4352294423347
20
1500.3186469439179
30
0
0
ARC
5
121
100
AcDbEntity
8
0
100
AcDbCircle
10
1740.5987236686155
20
1200.0735844306523
30
0
40
3.2499999999998193
210
0
220
0
230
1
100
AcDbArc
50
-67.614877090548703
51
204.99999999999741
0
LINE
5
122
100
AcDbEntity
8
0
100
AcDbLine
10
1741.8364221476263
20
1197.0684883464892
30
0
11
1747.4814445733978
21
1183.3625372813713
31
0
0
SPLINE
5
123
100
AcDbEntity
8
0
100
AcDbSpline
70
4
71
5
72
16
73
10
74
0
42
0.000000001
43
0.0000000001
44
0.0000000001
40
0
40
0
40
0
40
0
40
0
40
0
40
0.20000000000000001
40
0.40000000000000002
40
0.60000000000000009
40
0.80000000000000004
40
1
40
1
40
1
40
1
40
1
40
1
41
1
41
1
41
1
41
1
41
1
41
1
41
1
41
1
41
1
41
1
10
1747.4814445733978
20
1183.3625372813713
30
0
10
1753.1638790606708
20
1196.2702078075263
30
0
10
1765.3838873285292
20
1222.0588769107603
30
0
10
1786.2782390150826
20
1260.6618983599656
30
0
10
1819.6224550438958
20
1311.9615129752929
30
0
10
1874.9169179926757
20
1375.6614021071653
30
0
10
1936.906646161892
20
1426.0675580218613
30
0
10
1998.4019211299483
20
1463.404229336287
30
0
10
2047.1337952206125
20
1488.054086745869
30
0
10
2073.4352294423347
20
1500.3186469439179
30
0
0
LINE
5
124
100
AcDbEntity
8
0
100
AcDbLine
10
2073.4352294423347
20
1500.3186469439177
30
0
11
2043.1459173375297
21
1565.2646374348731
31
0
0
SPLINE
5
125
100
AcDbEntity
8
0
100
AcDbSpline
70
4
71
3
72
12
73
8
74
0
42
0.000000001
43
0.0000000001
44
0.0000000001
40
-45.822207332901186
40
-45.822207332901186
40
-45.822207332901186
40
-45.822207332901186
40
-43.264699497951113
40
-43.264699497951113
40
-23.932798398918145
40
-23.932798398918145
40
-2.8158745331672019
40
-2.8158745331672019
40
-2.8158745331672019
40
-2.8158745331672019
41
1
41
1
41
1
41
1
41
1
41
1
41
1
41
1
10
2043.1459173375297
20
1565.2646374348724
30
0
10
2032.1900439166236
20
1559.8561959593098
30
0
10
2021.5876489031882
20
1554.3715162307535
30
0
10
1933.4069506330022
20
1506.5875563886816
30
0
10
1864.1990922307245
20
1454.1086573948651
30
0
10
1742.435952351783
20
1315.5423981014706
30
0
10
1702.9155457523232
20
1239.2097507439512
30
0
10
1676.8750592808385
20
1170.3587517209337
30
0
0
LINE
5
126
100
AcDbEntity
8
0
100
AcDbLine
10
1676.8750592808385
20
1170.3587517209337
30
0
11
1737.6532233607466
21
1198.7000750799953
31
0
0
CIRCLE
5
127
100
AcDbEntity
8
0
100
AcDbCircle
10
1765.7806546245695
20
1281.8437745247393
30
0
40
15.000000000000149
210
0
220
-0
230
1
0
CIRCLE
5
128
100
AcDbEntity
8
0
100
AcDbCircle
10
1898.0572892383227
20
1430.2170100887934
30
0
40
15.000000000000149
210
0
220
-0
230
1
0
ARC
5
129
100
AcDbEntity
8
0
100
AcDbCircle
10
2123.6447954963155
20
1436.5975046795822
30
0
40
3.2499999999998868
210
0
220
-0
230
1
100
AcDbArc
50
69.999999370523554
51
341.57298949952894
0
LINE
5
130
100
AcDbEntity
8
0
100
AcDbLine
10
2124.7563609956765
20
1439.6515056849241
30
0
11
2146.2674534501466
21
1498.7527444511106
31
0
0
SPLINE
5
131
100
AcDbEntity
8
0
100
AcDbSpline
70
4
71
3
72
16
73
12
74
0
42
0.000000001
43
0.0000000001
44
0.0000000001
40
-70.903104819808547
40
-70.903104819808547
40
-70.903104819808547
40
-70.903104819808547
40
-67.489665820473519
40
-67.489665820473519
40
-50.82722253300976
40
-50.82722253300976
40
-26.121142651289198
40
-26.121142651289198
40
-6.2928734235291621
40
-6.2928734235291621
40
-5.0624045726492204
40
-5.0624045726492204
40
-5.0624045726492204
40
-5.0624045726492204
41
1
41
1
41
1
41
1
41
1
41
1
41
1
41
1
41
1
41
1
41
1
41
1
10
1716.8843437291212
20
1030.9989823243566
30
0
10
1720.2078839284054
20
1039.9040580060605
30
0
10
1723.5962822561924
20
1048.7374236426685
30
0
10
1743.8872321874824
20
1100.0723619118962
30
0
10
1762.6109890429125
20
1141.2330586821872
30
0
10
1817.8375046914778
20
1240.6024799550589
30
0
10
1868.3971404809081
20
1315.2548746379653
30
0
10
2008.2807005902459
20
1435.4277482487976
30
0
10
2073.6480350183542
20
1471.5113806696645
30
0
10
2138.7231861698365
20
1496.0399378950694
30
0
10
2142.5000135230548
20
1497.4198082390358
30
0
10
2146.2674534501466
20
1498.7527444511106
30
0
0
LINE
5
132
100
AcDbEntity
8
0
100
AcDbLine
10
1716.8843437291212
20
1030.9989823243566
30
0
11
1782.8473567347339
21
1006.9889715577708
31
0
0
SPLINE
5
133
100
AcDbEntity
8
0
100
AcDbSpline
70
4
71
5
72
16
73
10
74
0
42
0.000000001
43
0.0000000001
44
0.0000000001
40
0
40
0
40
0
40
0
40
0
40
0
40
0.20000000000000001
40
0.40000000000000002
40
0.60000000000000009
40
0.80000000000000004
40
1
40
1
40
1
40
1
40
1
40
1
41
1
41
1
41
1
41
1
41
1
41
1
41
1
41
1
41
1
41
1
10
1782.8473567347339
20
1006.9889715577708
30
0
10
1794.1849922169449
20
1038.1388690351441
30
0
10
1817.7298998707147
20
1096.2960570213136
30
0
10
1855.6538244774129
20
1171.1151980029063
30
0
10
1910.7130415742495
20
1249.4664799706757
30
0
10
1984.5227544800207
20
1323.65570992888
30
0
10
2046.0173176592309
20
1371.3515355984464
30
0
10
2093.0624264604735
20
1402.7209444467171
30
0
10
2124.809892739464
20
1421.8043710140064
30
0
10
2140.779681367062
20
1430.8885137520952
30
0
0
LINE
5
134
100
AcDbEntity
8
0
100
AcDbLine
10
2140.779681367062
20
1430.8885137520952
30
0
11
2126.7281585786568
21
1435.5701916297012
31
0
0
CIRCLE
5
135
100
AcDbEntity
8
0
100
AcDbCircle
10
1963.9619441455784
20
1341.1426202285516
30
0
40
15.000000000000819
210
0
220
-0
230
1
0
CIRCLE
5
136
100
AcDbEntity
8
0
100
AcDbCircle
10
1835.9883974704894
20
1188.5846688445556
30
0
40
15.000000000000819
210
0
220
-0
230
1
0
CIRCLE
5
137
100
AcDbEntity
8
0
100
AcDbCircle
10
1490.1626845164321
20
1128.3807043163927
30
0
40
40.000000000000128
210
0
220
-0
230
1
0
CIRCLE
5
138
100
AcDbEntity
8
0
100
AcDbCircle
10
1477.9608805208213
20
988.91344658450919
30
0
40
40.000000000000128
210
0
220
-0
230
1
0
SPLINE
5
139
100
AcDbEntity
8
0
100
AcDbSpline
70
4
71
5
72
17
73
11
74
0
42
0.000000001
43
0.0000000001
44
0.0000000001
40
0
40
0
40
0
40
0
40
0
40
0
40
0.10000000000000001
40
0.20000000000000001
40
0.30000000000000004
40
0.40000000000000002
40
0.5
40
0.53514869857753766
40
0.53514869857753766
40
0.53514869857753766
40
0.53514869857753766
40
0.53514869857753766
40
0.53514869857753766
41
1
41
1
41
1
41
1
41
1
41
1
41
1
41
1
41
1
41
1
41
1
10
2328.03324623558
20
1117.3133585257438
30
0
10
2325.3978219874166
20
1087.1903215564889
30
0
10
2316.4498647113842
20
1025.5472587004772
30
0
10
2291.9970888129728
20
928.89816749580064
30
0
10
2238.9094093677218
20
796.99952755536799
30
0
10
2146.9060908868055
20
654.14477776561057
30
0
10
2053.5852882248328
20
572.74132961361204
30
0
10
1978.7658850515161
20
546.79541018451062
30
0
10
1926.4868983726078
20
543.92147903633941
30
0
10
1896.6885193856051
20
545.73249083762107
30
0
10
1888.9580294183893
20
546.40882107386403
30
0
0
LINE
5
140
100
AcDbEntity
8
0
100
AcDbLine
10
2328.03324623558
20
1117.3133585257438
30
0
11
2258.2996173696351
21
1123.4142605235506
31
0
0
SPLINE
5
141
100
AcDbEntity
8
0
100
AcDbSpline
70
0
71
3
72
35
73
31
74
0
42
0.000000001
43
0.0000000001
44
0.0000000001
40
0
40
0
40
0
40
0
40
0.055112407783592006
40
0.055112407783592006
40
0.055112407783592006
40
0.11830896358109003
40
0.11830896358109003
40
0.11830896358109003
40
0.19862530063137851
40
0.19862530063137851
40
0.19862530063137851
40
0.27301686742937642
40
0.27301686742937642
40
0.27301686742937642
40
0.33157601216692878
40
0.33157601216692878
40
0.33157601216692878
40
0.382469183769581
40
0.382469183769581
40
0.382469183769581
40
0.42959581871297525
40
0.42959581871297525
40
0.42959581871297525
40
0.48295373116432044
40
0.48295373116432044
40
0.48295373116432044
40
0.52737555736291553
40
0.52737555736291553
40
0.52737555736291553
40
0.53514869857753766
40
0.53514869857753766
40
0.53514869857753766
40
0.53514869857753766
10
2258.2996173696351
20
1123.4142605235513
30
0
10
2256.1413977087423
20
1098.7456969409675
30
0
10
2252.2873598337951
20
1073.1194704456921
30
0
10
2246.7218161470901
20
1046.7253723511271
30
0
10
2240.3398922521783
20
1016.4596634111825
30
0
10
2231.7035219281315
20
985.1961712094959
30
0
10
2221.0275768253823
20
953.85180091679615
30
0
10
2207.4595461885497
20
914.01632290238979
30
0
10
2190.588895566917
20
874.07171026731532
30
0
10
2171.3270998895705
20
836.58214271263489
30
0
10
2153.4862070848653
20
801.85810310378088
30
0
10
2133.596914166058
20
769.28178774121307
30
0
10
2112.734884632237
20
740.8729164237667
30
0
10
2096.3128268698642
20
718.51017721938717
30
0
10
2079.2983743856621
20
698.74569654801803
30
0
10
2062.3655039697455
20
682.2572588619272
30
0
10
2047.6493143179844
20
667.92732128550256
30
0
10
2033.0153273590383
20
656.08136235113477
30
0
10
2018.8301843697743
20
646.72174585931941
30
0
10
2005.6948651467128
20
638.0548222676083
30
0
10
1992.9650584717988
20
631.50475808555143
30
0
10
1980.5497973878282
20
626.6931152896052
30
0
10
1966.4929394183441
20
621.24525729249513
30
0
10
1952.8282167673224
20
617.97820709809173
30
0
10
1938.7010867861641
20
616.35642657591177
30
0
10
1926.9398899199978
20
615.0062528307501
30
0
10
1914.8054706389482
20
614.81697492404351
30
0
10
1901.900378054374
20
615.62701299723528
30
0
10
1899.6421839270272
20
615.76875728987204
30
0
10
1897.3617954140923
20
615.94097544616602
30
0
10
1895.0589314161953
20
616.14244993980549
30
0
0
SPLINE
5
142
100
AcDbEntity
8
0
100
AcDbSpline
70
0
71
3
72
26
73
22
74
0
42
0.000000001
43
0.0000000001
44
0.0000000001
40
0.53514869857853764
40
0.53514869857853764
40
0.53514869857853764
40
0.53514869857853764
40
0.58384623872687658
40
0.58384623872687658
40
0.58384623872687658
40
0.63586545888601698
40
0.63586545888601698
40
0.63586545888601698
40
0.69038881120939677
40
0.69038881120939677
40
0.69038881120939677
40
0.7545988732364004
40
0.7545988732364004
40
0.7545988732364004
40
0.81700509089335438
40
0.81700509089335438
40
0.81700509089335438
40
0.88896342476402179
40
0.88896342476402179
40
0.88896342476402179
40
0.9340563573325007
40
0.9340563573325007
40
0.9340563573325007
40
0.9340563573325007
10
1895.0589314153069
20
616.14244993988279
30
0
10
1880.6318408868312
20
617.40465680997147
30
0
10
1865.277393393236
20
619.83685718415188
30
0
10
1849.2934835562864
20
622.96905565182044
30
0
10
1832.2193044031001
20
626.31490271464088
30
0
10
1814.4784563179815
20
630.40900646605962
30
0
10
1796.7821846208635
20
634.7297349567549
30
0
10
1778.2340392699639
20
639.25845724577243
30
0
10
1759.7414953490122
20
644.03852641713854
30
0
10
1741.7277872886416
20
649.01687989877587
30
0
10
1720.513733812388
20
654.87969596247808
30
0
10
1699.9492894587754
20
661.04003037113898
30
0
10
1680.1319118735239
20
667.94529210231758
30
0
10
1660.8712611291744
20
674.6565652730709
30
0
10
1642.3228206491308
20
682.06906520292023
30
0
10
1624.167152149666
20
690.8833962512864
30
0
10
1603.232512868831
20
701.04687995913423
30
0
10
1582.7845909032183
20
713.06124826543282
30
0
10
1561.7693289249792
20
728.66166958525355
30
0
10
1548.6000441414158
20
738.43772621100754
30
0
10
1535.1936615426505
20
749.65064288709129
30
0
10
1521.4117859669823
20
762.71563410055251
30
0
0
LINE
5
143
100
AcDbEntity
8
0
100
AcDbLine
10
1521.4117859669823
20
762.71563410055251
30
0
11
1559.8954099215282
21
1202.5854683615396
31
0
0
LINE
5
144
100
AcDbEntity
8
0
100
AcDbLine
10
1559.8954099215282
20
1202.5854683615396
30
0
11
1440.3520461516273
21
1213.0441575039483
31
0
0
LINE
5
145
100
AcDbEntity
8
0
100
AcDbLine
10
1440.3520461516273
20
1213.0441575039483
30
0
11
1410.2833148767297
21
869.35698666466578
31
0
0
LINE
5
146
100
AcDbEntity
8
0
100
AcDbLine
10
1410.2833148767297
20
869.35698666466578
30
0
11
1428.2148194422589
21
867.78818329380124
31
0
0
LINE
5
147
100
AcDbEntity
8
0
100
AcDbLine
10
1428.2148194422589
20
867.78818329380124
30
0
11
1422.1139174444531
21
798.05455442786092
31
0
0
LINE
5
148
100
AcDbEntity
8
0
100
AcDbLine
10
1422.1139174444531
20
798.05455442786092
30
0
11
1404.1824128789256
21
799.62335779872569
31
0
0
LINE
5
149
100
AcDbEntity
8
0
100
AcDbLine
10
1404.1824128789256
20
799.62335779872569
30
0
11
1403.3108554506671
21
789.66141081787725
31
0
0
SPLINE
5
150
100
AcDbEntity
8
0
100
AcDbSpline
70
4
71
5
72
16
73
10
74
0
42
0.000000001
43
0.0000000001
44
0.0000000001
40
0.53514869857853764
40
0.53514869857853764
40
0.53514869857853764
40
0.53514869857853764
40
0.53514869857853764
40
0.53514869857853764
40
0.59999999999999998
40
0.69999999999999996
40
0.79999999999999993
40
0.89999999999999991
40
1
40
1
40
1
40
1
40
1
40
1
41
1
41
1
41
1
41
1
41
1
41
1
41
1
41
1
41
1
41
1
10
1888.9580294172902
20
546.40882107396067
30
0
10
1874.6948459912119
20
547.65668793070347
30
0
10
1838.6050156464014
20
552.60560133983233
30
0
10
1781.4684366637027
20
565.92976777181491
30
0
10
1705.140715670866
20
585.09536993261065
30
0
10
1610.8722159914478
20
613.89666541017903
30
0
10
1529.8024491412152
20
657.73288576987454
30
0
10
1467.3962343580686
20
713.27979007481133
30
0
10
1424.832645526933
20
762.21358690633622
30
0
10
1403.3108554506675
20
789.66141081787725
30
0
0
LINE
5
151
100
AcDbEntity
8
0
100
AcDbLine
10
3774.8287160544814
20
518.53103227251552
30
0
11
1374.8287160544817
21
518.53103227251552
31
0
0
LWPOLYLINE
5
152
100
AcDbEntity
8
0
100
AcDbPolyline
90
4
70
1
43
0.0
10
3083.3511122270288
20
938.53103225863731
10
3083.3511122270352
20
638.53103225863731
10
2483.3511122270347
20
638.53103225862264
10
2483.3511122270284
20
938.53103225862264
0
LWPOLYLINE
5
153
100
AcDbEntity
8
0
100
AcDbPolyline
90
8
70
1
43
0.0
10
3221.9011778057279
20
1044.0310322586411
10
2344.8010466577084
20
1044.0310322586197
10
2344.8010466577089
20
1025.7525422267813
10
2274.8287160544769
20
783.35006507920798
10
2274.8287160544824
20
538.53103225861764
10
3291.8735084156224
20
538.53103226560347
10
3291.8735084122654
20
783.35006508619381
10
3221.9011778057052
20
1025.752542232806
0
LWPOLYLINE
5
154
100
AcDbEntity
8
0
100
AcDbPolyline
90
7
70
1
43
0.0
10
2560.4430031404281
20
884.8660731161408
10
2560.4430031404281
20
684.8660731161408
10
2610.4430031404281
20
684.8660731161408
10
2610.4430031404281
20
734.8660731161408
10
2760.4430031404281
20
834.86607311614057
10
2810.4430031404281
20
834.86607311614057
10
2810.4430031404281
20
884.86607311614057
0
LWPOLYLINE
5
155
100
AcDbEntity
8
0
100
AcDbPolyline
90
7
70
1
43
0.0
10
3005.4892528508803
20
682.07801216245616
10
3005.4892528508803
20
882.07801216245616
10
2955.4892528508803
20
882.07801216245616
10
2955.4892528508803
20
832.07801216245616
10
2805.4892528508803
20
732.07801216245639
10
2755.4892528508803
20
732.07801216245639
10
2755.4892528508803
20
682.07801216245639
0
CIRCLE
5
156
100
AcDbEntity
8
0
100
AcDbCircle
10
1979.4828770799968
20
983.98774979636664
30
0
40
15.000000000000011
210
0
220
-0
230
1
0
ARC
5
157
100
AcDbEntity
8
0
100
AcDbCircle
10
1915.204654135905
20
933.89619219001929
30
0
40
3.2500000000000902
210
-0
220
0
230
1
100
AcDbArc
50
-80.000000000044182
51
189.99999999995578
0
LINE
5
158
100
AcDbEntity
8
0
100
AcDbLine
10
1915.7690107133201
20
930.69556699272903
30
0
11
1927.3600265725363
21
864.959649479154
31
0
0
LINE
5
159
100
AcDbEntity
8
0
100
AcDbLine
10
1927.3600265725363
20
864.959649479154
30
0
11
1928.6838315812427
21
865.19307201938568
31
0
0
SPLINE
5
160
100
AcDbEntity
8
0
100
AcDbSpline
70
0
71
3
72
41
73
37
74
0
42
0.000000001
43
0.0000000001
44
0.0000000001
40
0
40
0
40
0
40
0
40
3.7672118984986307
40
3.7672118984986307
40
3.7672118984986307
40
4.3292021341533511
40
4.3292021341533511
40
4.3292021341533511
40
19.859426749336905
40
19.859426749336905
40
19.859426749336905
40
30.296236201820761
40
30.296236201820761
40
30.296236201820761
40
46.465787775165211
40
46.465787775165211
40
46.465787775165211
40
56.329997926081163
40
56.329997926081163
40
56.329997926081163
40
75.467605334142633
40
75.467605334142633
40
75.467605334142633
40
79.803350564652533
40
79.803350564652533
40
79.803350564652533
40
96.305354454530118
40
96.305354454530118
40
96.305354454530118
40
108.90602735266063
40
108.90602735266063
40
108.90602735266063
40
126.41353318272368
40
126.41353318272368
40
126.41353318272368
40
129.10183022596718
40
129.10183022596718
40
129.10183022596718
40
129.10183022596718
10
1928.6838315812424
20
865.19307201938545
30
0
10
1935.827370520085
20
875.5205822694262
30
0
10
1942.9709094589298
20
885.84809251946581
30
0
10
1950.1144483977725
20
896.17560276950485
30
0
10
1951.1801169186356
20
897.71625407225201
30
0
10
1952.245785439497
20
899.25690537499941
30
0
10
1953.3114539603594
20
900.79755667774612
30
0
10
1977.51313769234
20
935.7862561095061
30
0
10
2004.6118583941563
20
969.62929417652595
30
0
10
2037.154017818807
20
1002.0032415748227
30
0
10
2059.023393536359
20
1023.7595734111579
30
0
10
2083.3631776918683
20
1044.8639159030467
30
0
10
2111.0830478956996
20
1065.1846603863869
30
0
10
2153.9969119465964
20
1096.6437422564957
30
0
10
2200.1788166828005
20
1122.544658071492
30
0
10
2246.1902817902769
20
1142.7097996940183
30
0
10
2274.2595055478423
20
1155.0115134295738
30
0
10
2302.2577550101687
20
1165.1814001107996
30
0
10
2329.3211813204657
20
1173.2240370348359
30
0
10
2381.8881386292251
20
1188.8457453502658
30
0
10
2432.8971111408373
20
1197.1236330379895
30
0
10
2481.2386640386931
20
1198.2085145262577
30
0
10
2492.1907466550415
20
1198.4543012454715
30
0
10
2503.0077942335215
20
1198.3317647554236
30
0
10
2513.6809637940032
20
1197.8436031463377
30
0
10
2554.3069089705978
20
1195.9854834326361
30
0
10
2589.8323810991815
20
1189.0019656789032
30
0
10
2620.5951523474196
20
1179.7646567296165
30
0
10
2644.0851248698991
20
1172.7111916289116
30
0
10
2664.7796029207775
20
1164.3340433200292
30
0
10
2682.7012102113531
20
1155.8555755876466
30
0
10
2707.5866165203097
20
1144.0826296137277
30
0
10
2731.1241027934852
20
1130.212939058398
30
0
10
2753.577429205061
20
1114.3248326364737
30
0
10
2760.8923254881893
20
1109.1487688105017
30
0
10
2768.2072217713185
20
1103.9727049845301
30
0
10
2775.5221180544468
20
1098.7966411585585
30
0
0
LINE
5
161
100
AcDbEntity
8
0
100
AcDbLine
10
2775.5221180544463
20
1098.7966411585587
30
0
11
2797.0441194106998
21
1102.5915506764904
31
0
0
LINE
5
162
100
AcDbEntity
8
0
100
AcDbLine
10
2797.0441194106998
20
1102.5915506764904
30
0
11
2783.6355625941233
21
1178.6352551780278
31
0
0
SPLINE
5
163
100
AcDbEntity
8
0
100
AcDbSpline
70
0
71
3
72
16
73
12
74
0
42
0.000000001
43
0.0000000001
44
0.0000000001
40
58.861166008590892
40
58.861166008590892
40
58.861166008590892
40
58.861166008590892
40
74.022727514975116
40
74.022727514975116
40
103.12540430298321
40
103.12540430298321
40
126.59875694155458
40
126.59875694155458
40
152.63251866581498
40
152.63251866581498
40
178.5995527334824
40
178.5995527334824
40
178.5995527334824
40
178.5995527334824
10
2783.6355625941233
20
1178.6352551780278
30
0
10
2761.112572432713
20
1193.8272529428184
30
0
10
2737.4774317065894
20
1207.3798773596282
30
0
10
2664.953804869187
20
1241.6898150793133
30
0
10
2599.4100522262825
20
1263.9957670800288
30
0
10
2450.3123241877029
20
1270.8150897205826
30
0
10
2380.4451078095349
20
1261.442524029444
30
0
10
2230.5646932653981
20
1216.9014617714186
30
0
10
2146.0573029891434
20
1177.6177393594608
30
0
10
1993.5325678178674
20
1065.8056656371116
30
0
10
1939.3940618440815
20
1003.727505854182
30
0
10
1895.7416328050203
20
940.61860252215092
30
0
0
LINE
5
164
100
AcDbEntity
8
0
100
AcDbLine
10
1895.7416328050203
20
940.61860252215092
30
0
11
1897.4781145816823
21
930.77052499202887
31
0
0
LINE
5
165
100
AcDbEntity
8
0
100
AcDbLine
10
1897.4781145816823
20
930.77052499202887
30
0
11
1912.0040289386147
21
933.33183561260421
31
0
0
CIRCLE
5
166
100
AcDbEntity
8
0
100
AcDbCircle
10
2342.2016651496297
20
1207.9820394039184
30
0
40
15.000000000000011
210
0
220
-0
230
1
0
CIRCLE
5
167
100
AcDbEntity
8
0
100
AcDbCircle
10
2681.2727541415443
20
1189.4406796501435
30
0
40
15.000000000000011
210
0
220
-0
230
1
0
ARC
5
168
100
AcDbEntity
8
0
100
AcDbCircle
10
1891.6087228456465
20
1081.21185178156
30
0
40
3.2500000000001155
210
-0
220
0
230
1
100
AcDbArc
50
-88.804631367039562
51
181.19536863295616
0
LINE
5
169
100
AcDbEntity
8
0
100
AcDbLine
10
1891.6765230616991
20
1077.9625590691833
30
0
11
1893.069035191389
21
1011.2270856688333
31
0
0
LINE
5
170
100
AcDbEntity
8
0
100
AcDbLine
10
1893.069035191389
20
1011.2270856688333
30
0
11
1893.6727878140621
21
1011.2396836591929
31
0
0
SPLINE
5
171
100
AcDbEntity
8
0
100
AcDbSpline
70
0
71
3
72
62
73
58
74
0
42
0.000000001
43
0.0000000001
44
0.0000000001
40
-5.2966318221686022
40
-5.2966318221686022
40
-5.2966318221686022
40
-5.2966318221686022
40
-4.4426183923101021
40
-4.4426183923101021
40
-4.4426183923101021
40
-1
40
-1
40
-1
40
-0.94650292243697431
40
-0.94650292243697431
40
-0.94650292243697431
40
-0.88246620362922978
40
-0.88246620362922978
40
-0.88246620362922978
40
-0.8010853686871453
40
-0.8010853686871453
40
-0.8010853686871453
40
-0.72904225740277961
40
-0.72904225740277961
40
-0.72904225740277961
40
-0.66655806786323324
40
-0.66655806786323324
40
-0.66655806786323324
40
-0.61323373795042646
40
-0.61323373795042646
40
-0.61323373795042646
40
-0.56940127813590047
40
-0.56940127813590047
40
-0.56940127813590047
40
-0.51514039201037309
40
-0.51514039201037309
40
-0.51514039201037309
40
-0.47313868556043676
40
-0.47313868556043676
40
-0.47313868556043676
40
-0.42995312107677008
40
-0.42995312107677008
40
-0.42995312107677008
40
-0.38084883134589614
40
-0.38084883134589614
40
-0.38084883134589614
40
-0.32517050945967335
40
-0.32517050945967335
40
-0.32517050945967335
40
-0.25845531015773704
40
-0.25845531015773704
40
-0.25845531015773704
40
-0.1879951766980382
40
-0.1879951766980382
40
-0.1879951766980382
40
-0.12620141929182449
40
-0.12620141929182449
40
-0.12620141929182449
40
-0.05027175171881805
40
-0.05027175171881805
40
-0.05027175171881805
40
0
40
0
40
0
40
0
10
1893.6727878140623
20
1011.2396836591929
30
0
10
1895.6563991434894
20
1013.281509331415
30
0
10
1897.6400104729173
20
1015.323335003639
30
0
10
1899.6236218023473
20
1017.3651606758629
30
0
10
1907.6197687095573
20
1025.5959757512787
30
0
10
1915.6159156167751
20
1033.8267908266948
30
0
10
1923.6120625239914
20
1042.057605902113
30
0
10
1956.1513635337683
20
1075.551859122138
30
0
10
1988.6946843175856
20
1104.5585279368429
30
0
10
2021.2030807047536
20
1129.5505231242098
30
0
10
2060.1160668558782
20
1159.4662763047918
30
0
10
2098.9837678415261
20
1183.6488936952987
30
0
10
2137.4656207298972
20
1203.3034750371976
30
0
10
2186.3701457661687
20
1228.2814294018351
30
0
10
2234.6547354439513
20
1245.9709273051467
30
0
10
2280.9906052899296
20
1258.9428935009428
30
0
10
2322.0098480901233
20
1270.4264424825415
30
0
10
2361.4416178703332
20
1278.2235263745274
30
0
10
2398.5164374811229
20
1283.9795249658455
30
0
10
2430.6720456219355
20
1288.9717983498974
30
0
10
2461.0569192501857
20
1292.4395659726424
30
0
10
2489.5803650035832
20
1295.2036267084668
30
0
10
2513.922420855034
20
1297.5624904092253
30
0
10
2536.9058607566467
20
1299.4156951121558
30
0
10
2558.7489380428224
20
1300.9556332425248
30
0
10
2576.7038904808069
20
1302.2214583607524
30
0
10
2593.8666358772839
20
1303.2676213571672
30
0
10
2610.698401172142
20
1303.986472355381
30
0
10
2631.5347061347265
20
1304.8763492256339
30
0
10
2651.8904321481796
20
1305.2642806822764
30
0
10
2673.5614672859601
20
1304.6925628404404
30
0
10
2690.3363583966147
20
1304.2500133968222
30
0
10
2707.9490332862947
20
1303.2238640984165
30
0
10
2726.9765978480887
20
1301.3296632116305
30
0
10
2746.5404724094715
20
1299.3820724717443
30
0
10
2767.5908590829745
20
1296.514131530296
30
0
10
2790.2150067074467
20
1292.4133393871728
30
0
10
2815.9398690115204
20
1287.7505200416429
30
0
10
2843.691301082883
20
1281.4925753969997
30
0
10
2873.0584511547459
20
1273.209802151875
30
0
10
2906.3572452834019
20
1263.8181396844975
30
0
10
2941.7296516051911
20
1251.8203388727529
30
0
10
2978.04439220735
20
1236.6550325063035
30
0
10
3021.5576496977956
20
1218.4835718293821
30
0
10
3066.4078554602775
20
1195.7592842611416
30
0
10
3110.0457493997533
20
1167.6866248212571
30
0
10
3156.133175699119
20
1138.0381586336498
30
0
10
3200.8054807442336
20
1102.4514514693083
30
0
10
3241.1348801619233
20
1060.0321331700945
30
0
10
3276.5038895802859
20
1022.8302583564766
30
0
10
3308.5424585574533
20
980.39111137306236
30
0
10
3335.6817693538455
20
931.7620735334549
30
0
10
3369.0294558100095
20
872.00868043123592
30
0
10
3394.9930737686873
20
802.83269225756158
30
0
10
3410.9839574852845
20
722.08435962534281
30
0
10
3421.5712517756533
20
668.62225107742404
30
0
10
3427.7714828979497
20
610.08560584782572
30
0
10
3429.105154103554
20
546.17005540565174
30
0
0
LINE
5
172
100
AcDbEntity
8
0
100
AcDbLine
10
3429.1051541035536
20
546.17005540565185
30
0
11
3499.0899202162791
21
547.63036775139369
31
0
0
SPLINE
5
173
100
AcDbEntity
8
0
100
AcDbSpline
70
4
71
5
72
14
73
8
74
0
42
0.000000001
43
0.0000000001
44
0.0000000001
40
0
40
0
40
0
40
0
40
0
40
0
40
0.10000000000000001
40
0.20000000000000001
40
0.22696725041781046
40
0.22696725041781046
40
0.22696725041781046
40
0.22696725041781046
40
0.22696725041781046
40
0.22696725041781046
41
1
41
1
41
1
41
1
41
1
41
1
41
1
41
1
10
3499.0899202162791
20
547.63036775139369
30
0
10
3497.4084063639466
20
628.21610957159123
30
0
10
3481.896950164853
20
777.87694027615885
30
0
10
3436.7185484641236
20
921.59412352771426
30
0
10
3364.9566060459306
20
1036.9298071885498
30
0
10
3277.3710131226158
20
1127.0631015674799
30
0
10
3225.4168412014133
20
1170.2574402203984
30
0
10
3214.2675989144
20
1179.112199727158
30
0
0
SPLINE
5
174
100
AcDbEntity
8
0
100
AcDbSpline
70
4
71
5
72
13
73
7
74
0
42
0.000000001
43
0.0000000001
44
0.0000000001
40
0
40
0
40
0
40
0
40
0
40
0
40
0.5
40
1
40
1
40
1
40
1
40
1
40
1
41
1
41
1
41
1
41
1
41
1
41
1
41
1
10
3214.2675989144
20
1179.112199727158
30
0
10
3184.0732035940709
20
1203.0926732094792
30
0
10
3110.5469207274018
20
1254.3561763835546
30
0
10
3031.2833671250341
20
1294.7963639087832
30
0
10
2954.6032557468325
20
1323.7614456022127
30
0
10
2884.4184460164593
20
1343.535112959273
30
0
10
2842.7784391934215
20
1353.1139518622986
30
0
0
SPLINE
5
175
100
AcDbEntity
8
0
100
AcDbSpline
70
4
71
5
72
17
73
11
74
0
42
0.000000001
43
0.0000000001
44
0.0000000001
40
0.40715633909057036
40
0.40715633909057036
40
0.40715633909057036
40
0.40715633909057036
40
0.40715633909057036
40
0.40715633909057036
40
0.5
40
0.59999999999999998
40
0.69999999999999996
40
0.79999999999999993
40
0.89999999999999991
40
1
40
1
40
1
40
1
40
1
40
1
41
1
41
1
41
1
41
1
41
1
41
1
41
1
41
1
41
1
41
1
41
1
10
2842.7784391934215
20
1353.1139518622986
30
0
10
2809.1062495277019
20
1360.7453694267292
30
0
10
2743.4044339573297
20
1372.3297140888346
30
0
10
2658.5582741818089
20
1378.5180818994963
30
0
10
2574.5503073479231
20
1372.3261415324703
30
0
10
2443.3142613222203
20
1363.7016627981479
30
0
10
2270.6856612901515
20
1338.6795713215272
30
0
10
2111.2537364566542
20
1281.0544705922177
30
0
10
1990.9429112507173
20
1201.8869521314059
30
0
10
1912.3174460814466
20
1130.8896063428622
30
0
10
1873.4040240815546
20
1090.8341666230444
30
0
0
LINE
5
176
100
AcDbEntity
8
0
100
AcDbLine
10
1873.4040240815548
20
1090.8341666230444
30
0
11
1873.6126401309452
21
1080.836342892655
31
0
0
LINE
5
177
100
AcDbEntity
8
0
100
AcDbLine
10
1873.6126401309452
20
1080.836342892655
30
0
11
1888.3594301332698
21
1081.1440515655077
31
0
0
CIRCLE
5
178
100
AcDbEntity
8
0
100
AcDbCircle
10
3359.6828278780213
20
950.28043948064862
30
0
40
15.000000000000108
210
0
220
-0
230
1
0
CIRCLE
5
179
100
AcDbEntity
8
0
100
AcDbCircle
10
3438.8849903328992
20
735.45032903234244
30
0
40
15.000000000000108
210
0
220
-0
230
1
0
CIRCLE
5
180
100
AcDbEntity
8
0
100
AcDbCircle
10
2690.570198176164
20
1334.0833388088424
30
0
40
15.000000000000091
210
0
220
-0
230
1
0
CIRCLE
5
181
100
AcDbEntity
8
0
100
AcDbCircle
10
2347.0719895866368
20
1305.4040560704286
30
0
40
15.000000000000091
210
0
220
-0
230
1
0
CIRCLE
5
182
100
AcDbEntity
8
0
100
AcDbCircle
10
1962.8044025266668
20
1120.5096153419047
30
0
40
15.000000000000091
210
0
220
-0
230
1
0
SPLINE
5
183
100
AcDbEntity
8
0
100
AcDbSpline
70
4
71
5
72
21
73
15
74
0
42
0.000000001
43
0.0000000001
44
0.0000000001
40
0
40
0
40
0
40
0
40
0
40
0
40
0.10000000000000001
40
0.20000000000000001
40
0.30000000000000004
40
0.40000000000000002
40
0.5
40
0.59999999999999998
40
0.69999999999999996
40
0.79999999999999993
40
0.89999999999999991
40
1
40
1
40
1
40
1
40
1
40
1
41
1
41
1
41
1
41
1
41
1
41
1
41
1
41
1
41
1
41
1
41
1
41
1
41
1
41
1
41
1
10
3601.9112606990166
20
542.63952344999757
30
0
10
3614.9705909604572
20
622.17783602116981
30
0
10
3627.0434984416493
20
772.15521573407159
30
0
10
3603.0128684391348
20
969.82682510843142
30
0
10
3498.0172051618465
20
1179.6923742727279
30
0
10
3302.4482975718465
20
1358.4891199135759
30
0
10
3105.6904956701519
20
1463.4715859685682
30
0
10
2951.4643748102399
20
1510.3424831261987
30
0
10
2845.3722127899805
20
1522.0433505766782
30
0
10
2712.870857874982
20
1537.7484434476851
30
0
10
2538.5753718839451
20
1544.6638012869566
30
0
10
2371.3024123189966
20
1517.1147924379734
30
0
10
2238.5600236894093
20
1461.2430741729345
30
0
10
2148.2940119687632
20
1405.7936917584263
30
0
10
2102.7216739974324
20
1373.5159180632602
30
0
0
LINE
5
184
100
AcDbEntity
8
0
100
AcDbLine
10
2102.7216739974328
20
1373.51591806326
30
0
11
2101.1014756963223
21
1363.6480430404872
31
0
0
LINE
5
185
100
AcDbEntity
8
0
100
AcDbLine
10
2101.1014756963223
20
1363.6480430404872
30
0
11
2118.8636507373139
21
1360.7316860984872
31
0
0
LINE
5
186
100
AcDbEntity
8
0
100
AcDbLine
10
2118.8636507373139
20
1360.7316860984872
30
0
11
2107.5222626295417
21
1291.6565609390723
31
0
0
LINE
5
187
100
AcDbEntity
8
0
100
AcDbLine
10
2107.5222626295417
20
1291.6565609390723
30
0
11
2108.1181678571065
21
1291.5587197488371
31
0
0
SPLINE
5
188
100
AcDbEntity
8
0
100
AcDbSpline
70
0
71
3
72
62
73
58
74
0
42
0.000000001
43
0.0000000001
44
0.0000000001
40
-5.2966318221686022
40
-5.2966318221686022
40
-5.2966318221686022
40
-5.2966318221686022
40
-4.4426183923101021
40
-4.4426183923101021
40
-4.4426183923101021
40
-1
40
-1
40
-1
40
-0.94650292243697431
40
-0.94650292243697431
40
-0.94650292243697431
40
-0.88246620362922978
40
-0.88246620362922978
40
-0.88246620362922978
40
-0.8010853686871453
40
-0.8010853686871453
40
-0.8010853686871453
40
-0.72904225740277961
40
-0.72904225740277961
40
-0.72904225740277961
40
-0.66655806786323324
40
-0.66655806786323324
40
-0.66655806786323324
40
-0.61323373795042646
40
-0.61323373795042646
40
-0.61323373795042646
40
-0.56940127813590047
40
-0.56940127813590047
40
-0.56940127813590047
40
-0.51514039201037309
40
-0.51514039201037309
40
-0.51514039201037309
40
-0.47313868556043676
40
-0.47313868556043676
40
-0.47313868556043676
40
-0.42995312107677008
40
-0.42995312107677008
40
-0.42995312107677008
40
-0.38084883134589614
40
-0.38084883134589614
40
-0.38084883134589614
40
-0.32517050945967335
40
-0.32517050945967335
40
-0.32517050945967335
40
-0.25845531015773704
40
-0.25845531015773704
40
-0.25845531015773704
40
-0.1879951766980382
40
-0.1879951766980382
40
-0.1879951766980382
40
-0.12620141929182449
40
-0.12620141929182449
40
-0.12620141929182449
40
-0.05027175171881805
40
-0.05027175171881805
40
-0.05027175171881805
40
0
40
0
40
0
40
0
10
2108.1181678571065
20
1291.5587197488371
30
0
10
2110.4412173670853
20
1293.2040789668117
30
0
10
2112.7642668770654
20
1294.849438184785
30
0
10
2115.0873163870438
20
1296.49479740276
30
0
10
2124.451774473639
20
1303.1274143004737
30
0
10
2133.8162325602352
20
1309.7600311981887
30
0
10
2143.1806906468323
20
1316.3926480959024
30
0
10
2181.2881596577204
20
1343.3832374662065
30
0
10
2218.580280167504
20
1365.9609324603434
30
0
10
2255.1051021263338
20
1384.5978055882656
30
0
10
2298.8258035146473
20
1406.9063924927054
30
0
10
2341.4552791519573
20
1423.5864695504813
30
0
10
2382.8787057424779
20
1435.885058857687
30
0
10
2435.5215191917378
20
1451.5146770683748
30
0
10
2486.2241592456185
20
1460.0915196103501
30
0
10
2534.1495497581495
20
1464.3858979809193
30
0
10
2576.575929931053
20
1468.1875348044821
30
0
10
2616.7684782019969
20
1468.6544916614098
30
0
10
2654.2710480895958
20
1467.5449779024041
30
0
10
2686.7976511651837
20
1466.5826781518995
30
0
10
2717.3049510514111
20
1464.4447793372224
30
0
10
2745.8536323861313
20
1461.9548429028839
30
0
10
2770.2172244129547
20
1459.8299182961155
30
0
10
2793.1527166413925
20
1457.4558766744838
30
0
10
2814.9098193582413
20
1454.9820302476242
30
0
10
2832.7941009249521
20
1452.9485349506365
30
0
10
2849.8593864339159
20
1450.8437031148512
30
0
10
2866.5394971755741
20
1448.4774877094433
30
0
10
2887.1880665997869
20
1445.548312728059
30
0
10
2907.2724938361894
20
1442.2133682104513
30
0
10
2928.4749197850342
20
1437.6947667545442
30
0
10
2944.8870747334399
20
1434.1970543973184
30
0
10
2962.0163844839685
20
1429.9725962518683
30
0
10
2980.3783228637753
20
1424.6363588987419
30
0
10
2999.2578099363186
20
1419.1497146218387
30
0
10
3019.4307961162804
20
1412.486795371939
30
0
10
3040.9260103533406
20
1404.32442336143
30
0
10
3065.3672151944379
20
1395.0433711189198
30
0
10
3091.509705863099
20
1383.8240112964645
30
0
10
3118.8710847136999
20
1370.3188721499255
30
0
10
3149.8955770186294
20
1355.0056787682383
30
0
10
3182.4830257246003
20
1336.7515685421088
30
0
10
3215.4186774661648
20
1315.2111473171431
30
0
10
3254.8830236540334
20
1289.4008598230653
30
0
10
3294.8306356296757
20
1258.8701785357998
30
0
10
3332.6098562542206
20
1223.3023491881656
30
0
10
3372.5097434622558
20
1185.7379856109217
30
0
10
3409.9341458335493
20
1142.5935459692273
30
0
10
3441.841201334415
20
1093.5242191792011
30
0
10
3469.8237887970804
20
1050.490266121426
30
0
10
3493.5757397255038
20
1002.9151053137289
30
0
10
3511.3806837718485
20
950.14854886728449
30
0
10
3533.2586782383087
20
885.31114039553609
30
0
10
3546.15642175841
20
812.55761807944339
30
0
10
3547.1362760125385
20
730.24697799833575
30
0
10
3547.7850209808589
20
675.75049204973175
30
0
10
3543.1939763091068
20
617.06570688758097
30
0
10
3532.8361355396032
20
553.98091155777001
30
0
0
LINE
5
189
100
AcDbEntity
8
0
100
AcDbLine
10
3532.8361355396032
20
553.98091155777001
30
0
11
3601.9112606990166
21
542.63952344999757
31
0
0
CIRCLE
5
190
100
AcDbEntity
8
0
100
AcDbCircle
10
2438.9941948800715
20
1599.3695237341644
30
0
40
15.00000000000002
210
0
220
-0
230
1
0
CIRCLE
5
191
100
AcDbEntity
8
0
100
AcDbCircle
10
3324.7677229702167
20
1495.8958776065745
30
0
40
2.000000000000032
210
0
220
-0
230
1
0
CIRCLE
5
192
100
AcDbEntity
8
0
100
AcDbCircle
10
3332.7060436439656
20
1520.2527774865462
30
0
40
2.000000000000032
210
0
220
-0
230
1
0
CIRCLE
5
193
100
AcDbEntity
8
0
100
AcDbCircle
10
3635.1767317101712
20
1227.896620024278
30
0
40
1.9999999999998903
210
0
220
-0
230
1
0
CIRCLE
5
194
100
AcDbEntity
8
0
100
AcDbCircle
10
3627.2384110347321
20
1203.5397201448563
30
0
40
1.9999999999999607
210
0
220
-0
230
1
0
ARC
5
195
100
AcDbEntity
8
0
100
AcDbCircle
10
2358.8224426178517
20
1585.7333448510276
30
0
40
3.2500000000000457
210
0
220
0
230
1
100
AcDbArc
50
-108.05165461175839
51
161.94834538824423
0
LINE
5
196
100
AcDbEntity
8
0
100
AcDbLine
10
2357.8153511848777
20
1582.6433178534705
30
0
11
2337.1312425230308
21
1519.1789172113397
31
0
0
LINE
5
197
100
AcDbEntity
8
0
100
AcDbLine
10
2337.1312425230308
20
1519.1789172113397
30
0
11
2338.2469488171596
21
1518.8152898865878
31
0
0
SPLINE
5
198
100
AcDbEntity
8
0
100
AcDbSpline
70
4
71
5
72
36
73
30
74
0
42
0.000000001
43
0.0000000001
44
0.0000000001
40
0
40
0
40
0
40
0
40
0
40
0
40
0.81446444412476027
40
0.81446444412476027
40
0.81446444412476027
40
0.81446444412476027
40
0.81446444412476027
40
0.86446444412476031
40
0.91446444412476025
40
0.96446444412476029
40
1.0144644441247603
40
1.0644644441247602
40
1.1144644441247602
40
1.1644644441247602
40
1.2144644441247603
40
1.2644644441247603
40
1.3144644441247602
40
1.3644644441247602
40
1.4144644441247602
40
1.4644644441247603
40
1.5144644441247603
40
1.5644644441247604
40
1.6144644441247604
40
1.6644644441247605
40
1.7144644441247605
40
1.7644644441247606
40
1.8144644441247602
40
1.8144644441247602
40
1.8144644441247602
40
1.8144644441247602
40
1.8144644441247602
40
1.8144644441247602
41
1
41
1
41
1
41
1
41
1
41
1
41
1
41
1
41
1
41
1
41
1
41
1
41
1
41
1
41
1
41
1
41
1
41
1
41
1
41
1
41
1
41
1
41
1
41
1
41
1
41
1
41
1
41
1
41
1
41
1
10
2338.2469488171591
20
1518.8152898865878
30
0
10
2339.6661256292937
20
1519.6148813440664
30
0
10
2341.0853024414287
20
1520.4144728015444
30
0
10
2342.5044792535637
20
1521.2140642590227
30
0
10
2343.9236560656991
20
1522.013655716501
30
0
10
2345.3428328778336
20
1522.8132471739796
30
0
10
2357.6990157517725
20
1529.7749577857649
30
0
10
2382.3622743489736
20
1543.0418787392196
30
0
10
2419.2098327555573
20
1560.9727683850099
30
0
10
2467.9533478817375
20
1581.0066373421323
30
0
10
2527.7149369605877
20
1599.9944140439165
30
0
10
2585.6549359418386
20
1613.4915170313002
30
0
10
2641.1506959883955
20
1622.1528897237076
30
0
10
2693.7770836901036
20
1626.6586005607141
30
0
10
2743.4697377726225
20
1627.6532779251606
30
0
10
2790.7147097816369
20
1625.6850047136295
30
0
10
2836.336401823201
20
1621.2127906746821
30
0
10
2881.2612689332891
20
1614.6194120205166
30
0
10
2926.3071320602403
20
1606.2233547376177
30
0
10
2971.9337489351346
20
1596.2934658062914
30
0
10
3018.0920370064359
20
1585.0605171281641
30
0
10
3064.4196285421494
20
1572.7167684183778
30
0
10
3110.381471660457
20
1559.4180399918766
30
0
10
3155.4164449694467
20
1545.2855609847388
30
0
10
3199.1086728687633
20
1530.4081505939489
30
0
10
3241.2427591350074
20
1514.8457047480174
30
0
10
3273.6272546082087
20
1501.8765903859137
30
0
10
3297.1644489176224
20
1491.8654964491518
30
0
10
3312.5233174717496
20
1485.0656121952484
30
0
10
3320.119608662495
20
1481.6342145414778
30
0
0
LINE
5
199
100
AcDbEntity
8
0
100
AcDbLine
10
3320.119608662495
20
1481.6342145414783
30
0
11
3622.5902967286997
21
1189.2780570792083
31
0
0
SPLINE
5
200
100
AcDbEntity
8
0
100
AcDbSpline
70
4
71
5
72
26
73
20
74
0
42
0.000000001
43
0.0000000001
44
0.0000000001
40
-1
40
-1
40
-1
40
-1
40
-1
40
-1
40
-0.93333333333333324
40
-0.86666666666666659
40
-0.79999999999999993
40
-0.73333333333333328
40
-0.66666666666666663
40
-0.59999999999999998
40
-0.53333333333333333
40
-0.46666666666666662
40
-0.39999999999999997
40
-0.33333333333333331
40
-0.26666666666666666
40
-0.20000000000000001
40
-0.13333333333333333
40
-0.066666666666666666
40
0
40
0
40
0
40
0
40
0
40
0
41
1
41
1
41
1
41
1
41
1
41
1
41
1
41
1
41
1
41
1
41
1
41
1
41
1
41
1
41
1
41
1
41
1
41
1
41
1
41
1
10
3622.5902967286993
20
1189.2780570792081
30
0
10
3625.3290578292817
20
1179.9947035371224
30
0
10
3630.6668059805588
20
1161.5430060057236
30
0
10
3638.2541093089776
20
1134.2104803948159
30
0
10
3647.5257524662647
20
1098.4622401436002
30
0
10
3657.6607225005223
20
1054.9540994928566
30
0
10
3666.264980612716
20
1012.6268873018489
30
0
10
3673.2381013400732
20
971.4427740323066
30
0
10
3678.4630823353828
20
931.297907434423
30
0
10
3681.8195319237889
20
891.97856167640907
30
0
10
3683.1925483053669
20
853.18480075378147
30
0
10
3682.482092686877
20
814.58470949663251
30
0
10
3679.6191889567908
20
775.85601536970557
30
0
10
3674.5866852322133
20
736.73126905106301
30
0
10
3667.4485848659197
20
697.0444642551081
30
0
10
3658.3102228951448
20
656.70568030139464
30
0
10
3649.4881100603693
20
623.88224316830701
30
0
10
3642.0603750750543
20
598.95022381888339
30
0
10
3636.7528972462469
20
582.18951446247843
30
0
10
3634.0102443949877
20
573.77431890243827
30
0
0
LINE
5
201
100
AcDbEntity
8
0
100
AcDbLine
10
3634.0102443949881
20
573.77431890243827
30
0
11
3700.5646720346754
21
552.08311880761619
31
0
0
SPLINE
5
202
100
AcDbEntity
8
0
100
AcDbSpline
70
4
71
5
72
14
73
8
74
0
42
0.000000001
43
0.0000000001
44
0.0000000001
40
0
40
0
40
0
40
0
40
0
40
0
40
0.10000000000000001
40
0.20000000000000001
40
0.22696725041781043
40
0.22696725041781043
40
0.22696725041781043
40
0.22696725041781043
40
0.22696725041781043
40
0.22696725041781043
41
1
41
1
41
1
41
1
41
1
41
1
41
1
41
1
10
3700.5646720346749
20
552.08311880761585
30
0
10
3725.5415569726911
20
628.71891000428889
30
0
10
3760.2315308210996
20
775.12784154534927
30
0
10
3764.9534856020455
20
925.70479823208927
30
0
10
3735.2220333517553
20
1058.2496474425841
30
0
10
3682.2436195650007
20
1172.2168993879
30
0
10
3647.4320171515778
20
1230.1231961879107
30
0
10
3639.8248460162031
20
1242.1582830899249
30
0
0
LINE
5
203
100
AcDbEntity
8
0
100
AcDbLine
10
3639.8248460162031
20
1242.1582830899247
30
0
11
3337.3541579499984
21
1534.5144405521937
31
0
0
SPLINE
5
204
100
AcDbEntity
8
0
100
AcDbSpline
70
4
71
5
72
17
73
11
74
0
42
0.000000001
43
0.0000000001
44
0.0000000001
40
0.41296227674516278
40
0.41296227674516278
40
0.41296227674516278
40
0.41296227674516278
40
0.41296227674516278
40
0.41296227674516278
40
0.5
40
0.59999999999999998
40
0.69999999999999996
40
0.79999999999999993
40
0.89999999999999991
40
1
40
1
40
1
40
1
40
1
40
1
41
1
41
1
41
1
41
1
41
1
41
1
41
1
41
1
41
1
41
1
41
1
10
3337.3541579499988
20
1534.5144405521937
30
0
10
3310.2102492247236
20
1551.0667665100541
30
0
10
3254.3497905954182
20
1581.782742816808
30
0
10
3178.4997416238098
20
1614.2506084250238
30
0
10
3098.0620672897298
20
1635.8638942742796
30
0
10
2972.8114253392196
20
1670.5686182383101
30
0
10
2801.5833805853276
20
1703.8506749754838
30
0
10
2632.0670900321879
20
1702.0018571692622
30
0
10
2492.383993200272
20
1666.9187686447005
30
0
10
2394.7495298122408
20
1625.8079617804083
30
0
10
2344.8071898097633
20
1600.8188573953653
30
0
0
LINE
5
205
100
AcDbEntity
8
0
100
AcDbLine
10
2344.8071898097628
20
1600.8188573953653
30
0
11
2341.7084469390747
21
1591.3110820182681
31
0
0
LINE
5
206
100
AcDbEntity
8
0
100
AcDbLine
10
2341.7084469390747
20
1591.3110820182681
30
0
11
2355.7324156202949
21
1586.7404362840014
31
0
0
CIRCLE
5
207
100
AcDbEntity
8
0
100
AcDbCircle
10
2862.7209563538281
20
1647.2589749666699
30
0
40
15.00000000000002
210
0
220
-0
230
1
0
CIRCLE
5
208
100
AcDbEntity
8
0
100
AcDbCircle
10
3196.4633156085292
20
1561.1078131178224
30
0
40
15.00000000000002
210
0
220
-0
230
1
0
CIRCLE
5
209
100
AcDbEntity
8
0
100
AcDbCircle
10
3705.6380992896197
20
749.25114809666638
30
0
40
14.999999999999932
210
0
220
-0
230
1
0
CIRCLE
5
210
100
AcDbEntity
8
0
100
AcDbCircle
10
3701.6797911453136
20
978.18190332500421
30
0
40
14.999999999999932
210
0
220
-0
230
1
0
LWPOLYLINE
5
211
100
AcDbEntity
8
0
100
AcDbPolyline
90
7
70
1
43
0.0
10
3464.8287160544842
20
1498.5310322725161
10
3514.8287160544833
20
1498.5310322725161
10
3514.8287160544833
20
1698.5310322725161
10
3214.8287160544833
20
1698.5310322725149
10
3214.8287160544833
20
1648.5310322725154
10
3264.8287160544828
20
1648.5310322725154
10
3464.8287160544842
20
1548.5310322725161
0
LWPOLYLINE
5
212
100
AcDbEntity
8
0
100
AcDbPolyline
90
7
70
1
43
0.0
10
3554.8287160544828
20
1698.5310322725149
10
3554.8287160544824
20
1648.5310322725149
10
3604.8287160544824
20
1648.5310322725149
10
3704.8287160544814
20
1448.5310322725149
10
3704.8287160544824
20
1398.5310322725149
10
3754.8287160544814
20
1398.5310322725149
10
3754.8287160544824
20
1698.5310322725149
0
LINE
5
213
100
AcDbEntity
8
0
100
AcDbLine
10
3774.8287160544814
20
1718.5310322725154
30
0
11
3774.8287160544814
21
518.53103227251552
31
0
0
ENDSEC
0
SECTION
2
OBJECTS
0
DICTIONARY
5
C
100
AcDbDictionary
3
ACAD_GROUP
350
D
3
ACAD_MLINESTYLE
350
17
0
DICTIONARY
5
D
100
AcDbDictionary
0
DICTIONARY
5
1A
330
C
100
AcDbDictionary
0
DICTIONARY
5
17
100
AcDbDictionary
0
ENDSEC
0
EOF
