0
SECTION
2
HEADER
9
$INSUNITS
70
4
9
$ACADVER
1
AC1014
9
$HANDSEED
5
FFFF
0
ENDSEC
0
SECTION
2
TABLES
0
TABLE
2
VPORT
5
8
100
AcDbSymbolTable
0
ENDTAB
0
TABLE
2
LTYPE
5
5
100
AcDbSymbolTable
0
LTYPE
5
14
100
AcDbSymbolTableRecord
100
AcDbLinetypeTableRecord
2
BYBLOCK
70
0
0
LTYPE
5
15
100
AcDbSymbolTableRecord
100
AcDbLinetypeTableRecord
2
BYLAYER
70
0
0
ENDTAB
0
TABLE
2
LAYER
5
2
100
AcDbSymbolTable
70
2
0
LAYER
5
50
100
AcDbSymbolTableRecord
100
AcDbLayerTableRecord
2
0
70
0
6
CONTINUOUS
0
ENDTAB
0
TABLE
2
STYLE
5
3
100
AcDbSymbolTable
70
1
0
STYLE
5
11
100
AcDbSymbolTableRecord
100
AcDbTextStyleTableRecord
2
STANDARD
70
0
0
ENDTAB
0
TABLE
2
VIEW
5
6
100
AcDbSymbolTable
70
0
0
ENDTAB
0
TABLE
2
UCS
5
7
100
AcDbSymbolTable
70
0
0
ENDTAB
0
TABLE
2
APPID
5
9
100
AcDbSymbolTable
70
2
0
APPID
5
12
100
AcDbSymbolTableRecord
100
AcDbRegAppTableRecord
2
ACAD
70
0
0
ENDTAB
0
TABLE
2
DIMSTYLE
5
A
100
AcDbSymbolTable
70
1
0
ENDTAB
0
TABLE
2
BLOCK_RECORD
5
1
100
AcDbSymbolTable
70
1
0
BLOCK_RECORD
5
1F
100
AcDbSymbolTableRecord
100
AcDbBlockTableRecord
2
*MODEL_SPACE
0
BLOCK_RECORD
5
1B
100
AcDbSymbolTableRecord
100
AcDbBlockTableRecord
2
*PAPER_SPACE
0
ENDTAB
0
ENDSEC
0
SECTION
2
BLOCKS
0
BLOCK
5
20
100
AcDbEntity
100
AcDbBlockBegin
2
*MODEL_SPACE
0
ENDBLK
5
21
100
AcDbEntity
100
AcDbBlockEnd
0
BLOCK
5
1C
100
AcDbEntity
100
AcDbBlockBegin
2
*PAPER_SPACE
0
ENDBLK
5
1D
100
AcDbEntity
100
AcDbBlockEnd
0
ENDSEC
0
SECTION
2
ENTITIES
0
LINE
5
100
100
AcDbEntity
8
0
100
AcDbLine
10
1366.8138817819088
20
3145.6180033287174
30
0
11
1366.8138817819088
21
1945.6180033287169
31
0
0
LINE
5
101
100
AcDbEntity
8
0
100
AcDbLine
10
3766.813881781909
20
3145.6180033287174
30
0
11
1366.8138817819088
21
3145.6180033287174
31
0
0
CIRCLE
5
102
100
AcDbEntity
8
0
100
AcDbCircle
10
3380.8138817819095
20
3115.6180033287178
30
0
40
1.9999999999999574
210
0
220
-0
230
1
0
CIRCLE
5
103
100
AcDbEntity
8
0
100
AcDbCircle
10
3732.813881781909
20
3090.6180033287178
30
0
40
2.0000000000000284
210
0
220
-0
230
1
0
CIRCLE
5
104
100
AcDbEntity
8
0
100
AcDbCircle
10
3380.8138817819095
20
3090.6180033287178
30
0
40
2.0000000000000284
210
0
220
-0
230
1
0
CIRCLE
5
105
100
AcDbEntity
8
0
100
AcDbCircle
10
3732.813881781909
20
3115.6180033287178
30
0
40
2.0000000000000284
210
0
220
-0
230
1
0
CIRCLE
5
106
100
AcDbEntity
8
0
100
AcDbCircle
10
3123.8138817819095
20
3090.6180033287174
30
0
40
2.0000000000000284
210
0
220
-0
230
1
0
CIRCLE
5
107
100
AcDbEntity
8
0
100
AcDbCircle
10
3123.8138817819095
20
3115.6180033287174
30
0
40
1.9999999999998863
210
0
220
-0
230
1
0
LINE
5
108
100
AcDbEntity
8
0
100
AcDbLine
10
1409.813881781909
20
2959.2167871897777
30
0
11
1409.813881781909
21
2955.6180033287174
31
0
0
LINE
5
109
100
AcDbEntity
8
0
100
AcDbLine
10
1409.813881781909
20
2955.6180033287174
30
0
11
1391.8138817819092
21
2955.6180033287174
31
0
0
LINE
5
110
100
AcDbEntity
8
0
100
AcDbLine
10
1391.8138817819092
20
2955.6180033287174
30
0
11
1391.8138817819092
21
2885.6180033287174
31
0
0
LINE
5
111
100
AcDbEntity
8
0
100
AcDbLine
10
1391.8138817819092
20
2885.6180033287174
30
0
11
1409.813881781909
21
2885.6180033287174
31
0
0
SPLINE
5
112
100
AcDbEntity
8
0
100
AcDbSpline
70
4
71
5
72
46
73
40
74
0
42
0.000000001
43
0.0000000001
44
0.0000000001
40
0
40
0
40
0
40
0
40
0
40
0
40
0.028571428571428571
40
0.057142857142857141
40
0.085714285714285715
40
0.11428571428571428
40
0.14285714285714285
40
0.17142857142857143
40
0.20000000000000001
40
0.22857142857142859
40
0.25714285714285717
40
0.28571428571428575
40
0.31428571428571433
40
0.34285714285714292
40
0.3714285714285715
40
0.40000000000000008
40
0.42857142857142866
40
0.45714285714285724
40
0.48571428571428582
40
0.51428571428571435
40
0.54285714285714293
40
0.57142857142857151
40
0.60000000000000009
40
0.62857142857142867
40
0.65714285714285725
40
0.68571428571428583
40
0.71428571428571441
40
0.74285714285714299
40
0.77142857142857157
40
0.80000000000000016
40
0.82857142857142874
40
0.85714285714285732
40
0.8857142857142859
40
0.91428571428571448
40
0.94285714285714306
40
0.97142857142857164
40
1
40
1
40
1
40
1
40
1
40
1
41
1
41
1
41
1
41
1
41
1
41
1
41
1
41
1
41
1
41
1
41
1
41
1
41
1
41
1
41
1
41
1
41
1
41
1
41
1
41
1
41
1
41
1
41
1
41
1
41
1
41
1
41
1
41
1
41
1
41
1
41
1
41
1
41
1
41
1
41
1
41
1
41
1
41
1
41
1
41
1
10
1409.813881781909
20
2885.6180033287174
30
0
10
1420.2390219423328
20
2887.715645912358
30
0
10
1440.9953536993339
20
2891.8731310559224
30
0
10
1471.8480113403791
20
2897.9959595667128
30
0
10
1512.4204088868748
20
2905.9326233482816
30
0
10
1562.2141882576134
20
2915.4758774105403
30
0
10
1611.1502440975676
20
2924.647286172758
30
0
10
1659.3642088494312
20
2933.4609019370337
30
0
10
1707.0845497580685
20
2941.9418116225866
30
0
10
1754.6690467496524
20
2950.1311424312908
30
0
10
1802.5477870397824
20
2958.0771505145326
30
0
10
1851.1435044801892
20
2965.8230067267368
30
0
10
1900.7957765344665
20
2973.3950299082053
30
0
10
1951.691865040063
20
2980.7922300953078
30
0
10
2003.7717351795309
20
2987.9712285942883
30
0
10
2056.7735915026269
20
2994.8563022451049
30
0
10
2110.3307989654522
20
3001.358615427017
30
0
10
2164.0535349923839
20
3007.3928334592056
30
0
10
2217.6113020436687
20
3012.893864633988
30
0
10
2270.8275766645438
20
3017.8360707774727
30
0
10
2323.7314209931383
20
3022.2442308751624
30
0
10
2376.4552707363355
20
3026.1750609995879
30
0
10
2429.1605888680133
20
3029.7040339624095
30
0
10
2481.9490741569621
20
3032.9098496332517
30
0
10
2534.7885932558625
20
3035.8610334835475
30
0
10
2587.4095195293439
20
3038.5989561274428
30
0
10
2639.3719410765789
20
3041.1411935982983
30
0
10
2690.1758120684963
20
3043.4900920975388
30
0
10
2739.3613103400057
20
3045.6398697251607
30
0
10
2786.6020937900612
20
3047.5834939183346
30
0
10
2831.8304419211063
20
3049.3216377188437
30
0
10
2875.2362539132473
20
3050.8627582555005
30
0
10
2917.1477516361874
20
3052.2147269813977
30
0
10
2957.9468467896481
20
3053.3789543743669
30
0
10
2997.96917455021
20
3054.3432265379861
30
0
10
3037.4156622523715
20
3055.0757831116175
30
0
10
3068.5940133114946
20
3055.4456871974035
30
0
10
3091.7805296208126
20
3055.586672992888
30
0
10
3107.1506851091863
20
3055.6180033287174
30
0
10
3114.8138817819099
20
3055.6180033287174
30
0
0
LINE
5
113
100
AcDbEntity
8
0
100
AcDbLine
10
3114.8138817819099
20
3055.6180033287174
30
0
11
3741.8138817819095
21
3055.6180033287178
31
0
0
LINE
5
114
100
AcDbEntity
8
0
100
AcDbLine
10
3741.8138817819095
20
3055.6180033287178
30
0
11
3741.8138817819095
21
3125.6180033287178
31
0
0
LINE
5
115
100
AcDbEntity
8
0
100
AcDbLine
10
3741.8138817819095
20
3125.6180033287178
30
0
11
3114.8138817819099
21
3125.6180033287174
31
0
0
SPLINE
5
116
100
AcDbEntity
8
0
100
AcDbSpline
70
4
71
5
72
46
73
40
74
0
42
0.000000001
43
0.0000000001
44
0.0000000001
40
0
40
0
40
0
40
0
40
0
40
0
40
0.028571428571428571
40
0.057142857142857141
40
0.085714285714285715
40
0.11428571428571428
40
0.14285714285714285
40
0.17142857142857143
40
0.20000000000000001
40
0.22857142857142859
40
0.25714285714285717
40
0.28571428571428575
40
0.31428571428571433
40
0.34285714285714292
40
0.3714285714285715
40
0.40000000000000008
40
0.42857142857142866
40
0.45714285714285724
40
0.48571428571428582
40
0.51428571428571435
40
0.54285714285714293
40
0.57142857142857151
40
0.60000000000000009
40
0.62857142857142867
40
0.65714285714285725
40
0.68571428571428583
40
0.71428571428571441
40
0.74285714285714299
40
0.77142857142857157
40
0.80000000000000016
40
0.82857142857142874
40
0.85714285714285732
40
0.8857142857142859
40
0.91428571428571448
40
0.94285714285714306
40
0.97142857142857164
40
0.99016820697543084
40
0.99016820697543084
40
0.99016820697543084
40
0.99016820697543084
40
0.99016820697543084
40
0.99016820697543084
41
1
41
1
41
1
41
1
41
1
41
1
41
1
41
1
41
1
41
1
41
1
41
1
41
1
41
1
41
1
41
1
41
1
41
1
41
1
41
1
41
1
41
1
41
1
41
1
41
1
41
1
41
1
41
1
41
1
41
1
41
1
41
1
41
1
41
1
41
1
41
1
41
1
41
1
41
1
41
1
10
3114.8138817819099
20
3125.6180033287174
30
0
10
3106.3651384783161
20
3125.6180033287174
30
0
10
3089.4981658520514
20
3125.5967450186126
30
0
10
3064.2892707379201
20
3125.5010747838628
30
0
10
3030.8606484327256
20
3125.2348013581022
30
0
10
2989.3386909927185
20
3124.6153233247401
30
0
10
2947.9490952116248
20
3123.6561528029752
30
0
10
2906.4324328859925
20
3122.3330232754597
30
0
10
2864.3376253371671
20
3120.6857362651867
30
0
10
2821.1095151130944
20
3118.8013693057856
30
0
10
2776.2283541699035
20
3116.7806796395962
30
0
10
2729.3215558528186
20
3114.7121430575735
30
0
10
2680.3122144752833
20
3112.6384432416371
30
0
10
2629.4742550146902
20
3110.5401730433528
30
0
10
2577.2787925422449
20
3108.3568109735552
30
0
10
2524.2820009312431
20
3106.0002193815103
30
0
10
2470.9996849404888
20
3103.3707868411102
30
0
10
2417.7820373173331
20
3100.3727405670547
30
0
10
2364.7037855584053
20
3096.9287728519485
30
0
10
2311.6700397620957
20
3092.9810969464279
30
0
10
2258.5028585197347
20
3088.4935238588387
30
0
10
2205.0391594518105
20
3083.4536712293166
30
0
10
2151.2132546970806
20
3077.8744996380283
30
0
10
2097.1729482449946
20
3071.7983941464304
30
0
10
2043.2453528470821
20
3065.2898143408938
30
0
10
1989.8306099037241
20
3058.4224843415832
30
0
10
1937.3165537901514
20
3051.2681431180372
30
0
10
1885.9895799963151
20
3043.8852986591269
30
0
10
1835.935012426894
20
3036.3065330917584
30
0
10
1786.9764930469801
20
3028.5307148433767
30
0
10
1738.7733086349458
20
3020.5346343439387
30
0
10
1690.893662001047
20
3012.2817076992978
30
0
10
1642.8940589633667
20
3003.7314616264007
30
0
10
1594.4019341544017
20
2994.8493922780999
30
0
10
1545.1787423254373
20
2985.614555162233
30
0
10
1498.5307298255425
20
2976.6760642573936
30
0
10
1461.2740595250161
20
2969.4109268001762
30
0
10
1433.8706932088603
20
2964.0027839663853
30
0
10
1416.6539441775203
20
2960.5803348694685
30
0
10
1409.8138817818096
20
2959.2167871897582
30
0
0
CIRCLE
5
117
100
AcDbEntity
8
0
100
AcDbCircle
10
1400.813881781909
20
2920.6180033287174
30
0
40
2.0000000000000284
210
0
220
-0
230
1
0
CIRCLE
5
118
100
AcDbEntity
8
0
100
AcDbCircle
10
1400.813881781909
20
2945.6180033287174
30
0
40
2.0000000000000284
210
0
220
-0
230
1
0
CIRCLE
5
119
100
AcDbEntity
8
0
100
AcDbCircle
10
2946.8138817819095
20
3088.2776805545268
30
0
40
2.0000000000000284
210
0
220
-0
230
1
0
CIRCLE
5
120
100
AcDbEntity
8
0
100
AcDbCircle
10
2484.813881781909
20
3093.5316938807709
30
0
40
2.0000000000000284
210
0
220
-0
230
1
0
CIRCLE
5
121
100
AcDbEntity
8
0
100
AcDbCircle
10
1906.3138817819092
20
3035.4512014807301
30
0
40
2.0000000000000284
210
0
220
-0
230
1
0
CIRCLE
5
122
100
AcDbEntity
8
0
100
AcDbCircle
10
1660.8138817819095
20
2995.2773693123095
30
0
40
2.0000000000000284
210
0
220
-0
230
1
0
CIRCLE
5
123
100
AcDbEntity
8
0
100
AcDbCircle
10
2195.8138817819095
20
3071.4961999712586
30
0
40
2.0000000000000284
210
0
220
-0
230
1
0
CIRCLE
5
124
100
AcDbEntity
8
0
100
AcDbCircle
10
2752.813881781909
20
3106.5480435137074
30
0
40
2.0000000000000284
210
0
220
-0
230
1
0
CIRCLE
5
125
100
AcDbEntity
8
0
100
AcDbCircle
10
2946.8138817819095
20
3113.2776805545268
30
0
40
2.0000000000000284
210
0
220
-0
230
1
0
CIRCLE
5
126
100
AcDbEntity
8
0
100
AcDbCircle
10
1906.3138817819092
20
3010.4512014807301
30
0
40
2.0000000000000284
210
0
220
-0
230
1
0
CIRCLE
5
127
100
AcDbEntity
8
0
100
AcDbCircle
10
1660.8138817819095
20
2970.2773693123095
30
0
40
2.0000000000000284
210
0
220
-0
230
1
0
CIRCLE
5
128
100
AcDbEntity
8
0
100
AcDbCircle
10
2195.8138817819095
20
3046.4961999712586
30
0
40
2.0000000000000284
210
0
220
-0
230
1
0
CIRCLE
5
129
100
AcDbEntity
8
0
100
AcDbCircle
10
2752.813881781909
20
3081.5480435137074
30
0
40
2.0000000000000284
210
0
220
-0
230
1
0
CIRCLE
5
130
100
AcDbEntity
8
0
100
AcDbCircle
10
2484.813881781909
20
3068.5316938807709
30
0
40
2.0000000000000284
210
0
220
-0
230
1
0
LINE
5
131
100
AcDbEntity
8
0
100
AcDbLine
10
3766.813881781909
20
1945.6180033287169
30
0
11
3766.813881781909
21
3145.6180033287174
31
0
0
CIRCLE
5
132
100
AcDbEntity
8
0
100
AcDbCircle
10
3732.8138817819099
20
3007.6180033287164
30
0
40
1.9999999999998863
210
-0
220
0
230
1
0
CIRCLE
5
133
100
AcDbEntity
8
0
100
AcDbCircle
10
3732.8138817819099
20
2983.6180033287164
30
0
40
1.9999999999998863
210
-0
220
0
230
1
0
LINE
5
134
100
AcDbEntity
8
0
100
AcDbLine
10
3741.8138817819095
20
3030.618003328716
30
0
11
3114.813881781909
21
3030.6180033287164
31
0
0
SPLINE
5
135
100
AcDbEntity
8
0
100
AcDbSpline
70
4
71
5
72
16
73
10
74
0
42
0.000000001
43
0.0000000001
44
0.0000000001
40
0
40
0
40
0
40
0
40
0
40
0
40
0.20000000000000001
40
0.40000000000000002
40
0.60000000000000009
40
0.80000000000000004
40
1
40
1
40
1
40
1
40
1
40
1
41
1
41
1
41
1
41
1
41
1
41
1
41
1
41
1
41
1
41
1
10
3114.813881781909
20
3030.6180033287164
30
0
10
3063.2370732651721
20
3030.6180033287164
30
0
10
2967.2728742100226
20
3028.7847307607381
30
0
10
2844.8742670593883
20
3020.5393585224397
30
0
10
2717.8226074125973
20
2999.5573245171554
30
0
10
2592.0046152486766
20
2958.6150892305295
30
0
10
2497.0946480775237
20
2913.2959053661471
30
0
10
2420.2523006280553
20
2870.5560982063653
30
0
10
2365.256234983719
20
2837.7024429058611
30
0
10
2336.8149719364442
20
2820.1845963398023
30
0
0
LINE
5
136
100
AcDbEntity
8
0
100
AcDbLine
10
2336.8149719364446
20
2820.1845963398018
30
0
11
1574.3097887964659
21
2350.5342583126203
31
0
0
LINE
5
137
100
AcDbEntity
8
0
100
AcDbLine
10
1574.3097887964659
20
2350.5342583126203
30
0
11
1391.8138817819092
21
2309.2647973382482
31
0
0
LINE
5
138
100
AcDbEntity
8
0
100
AcDbLine
10
1391.8138817819092
20
2309.2647973382482
30
0
11
1391.856143955325
21
2237.2056777344014
31
0
0
LINE
5
139
100
AcDbEntity
8
0
100
AcDbLine
10
1391.856143955325
20
2237.2056777344014
30
0
11
1578.8133599096955
21
2279.7684338060617
31
0
0
LINE
5
140
100
AcDbEntity
8
0
100
AcDbLine
10
1578.8133599096955
20
2279.7684338060617
30
0
11
1897.3138817819095
21
2279.7684338060612
31
0
0
LINE
5
141
100
AcDbEntity
8
0
100
AcDbLine
10
1897.3138817819095
20
2279.7684338060612
30
0
11
1897.3138817819095
21
2349.7684338060612
31
0
0
LINE
5
142
100
AcDbEntity
8
0
100
AcDbLine
10
1897.3138817819095
20
2349.7684338060612
30
0
11
1736.3138817819095
21
2349.7684338060612
31
0
0
LINE
5
143
100
AcDbEntity
8
0
100
AcDbLine
10
1736.3138817819095
20
2349.7684338060612
30
0
11
1737.3104277427019
21
2389.8591162551861
31
0
0
LINE
5
144
100
AcDbEntity
8
0
100
AcDbLine
10
1737.3104277427019
20
2389.8591162551861
30
0
11
2435.9693712880248
21
2820.1845963398068
31
0
0
SPLINE
5
145
100
AcDbEntity
8
0
100
AcDbSpline
70
4
71
5
72
18
73
12
74
0
42
0.000000001
43
0.0000000001
44
0.0000000001
40
-1
40
-1
40
-1
40
-1
40
-1
40
-1
40
-0.93333333333333324
40
-0.86666666666666659
40
-0.79999999999999993
40
-0.73333333333333328
40
-0.66666666666666663
40
-0.59999999999999998
40
-0.58059121630207855
40
-0.58059121630207855
40
-0.58059121630207855
40
-0.58059121630207855
40
-0.58059121630207855
40
-0.58059121630207855
41
1
41
1
41
1
41
1
41
1
41
1
41
1
41
1
41
1
41
1
41
1
41
1
10
2435.9693712880248
20
2820.1845963398068
30
0
10
2442.8853681931973
20
2824.4443710352825
30
0
10
2457.7189342383635
20
2832.945819783115
30
0
10
2482.9739272854436
20
2845.643680889973
30
0
10
2522.1964152608166
20
2862.3698183161532
30
0
10
2577.7882062030676
20
2882.3796142628653
30
0
10
2636.4362731245337
20
2900.7711571048117
30
0
10
2686.2573005173176
20
2914.5398237714812
30
0
10
2722.449413784821
20
2923.5127584967495
30
0
10
2746.2791015122912
20
2928.9362552627786
30
0
10
2759.2495315831598
20
2931.7330614850234
30
0
10
2762.1506907846815
20
2932.3505541847971
30
0
0
SPLINE
5
146
100
AcDbEntity
8
0
100
AcDbSpline
70
4
71
5
72
20
73
14
74
0
42
0.000000001
43
0.0000000001
44
0.0000000001
40
-0.58059121630207799
40
-0.58059121630207799
40
-0.58059121630207799
40
-0.58059121630207799
40
-0.58059121630207799
40
-0.58059121630207799
40
-0.53333333333333333
40
-0.46666666666666662
40
-0.39999999999999997
40
-0.33333333333333331
40
-0.26666666666666666
40
-0.20000000000000001
40
-0.13333333333333333
40
-0.066666666666666666
40
0
40
0
40
0
40
0
40
0
40
0
41
1
41
1
41
1
41
1
41
1
41
1
41
1
41
1
41
1
41
1
41
1
41
1
41
1
41
1
10
2762.1506907846824
20
2932.3505541847971
30
0
10
2769.2146389513
20
2933.854069201202
30
0
10
2785.9080113465075
20
2937.2906923731671
30
0
10
2811.063402258173
20
2942.0267011865062
30
0
10
2842.7209675699082
20
2947.0450147840747
30
0
10
2879.0931566614522
20
2951.3015077586188
30
0
10
2915.3091148029848
20
2954.1007658375966
30
0
10
2951.2307900089922
20
2955.8867225335621
30
0
10
2988.453194083831
20
2957.1968618291817
30
0
10
3027.8121521302778
20
2958.335254759379
30
0
10
3061.3151883255455
20
2959.2323735865866
30
0
10
3087.612505087091
20
2959.9195651160812
30
0
10
3105.6606670790056
20
2960.3841227382909
30
0
10
3114.813881781909
20
2960.6180033287164
30
0
0
LINE
5
147
100
AcDbEntity
8
0
100
AcDbLine
10
3114.8138817819099
20
2960.618003328716
30
0
11
3741.8138817819095
21
2960.618003328716
31
0
0
LINE
5
148
100
AcDbEntity
8
0
100
AcDbLine
10
3741.8138817819095
20
2960.618003328716
30
0
11
3741.8138817819095
21
3030.618003328716
31
0
0
CIRCLE
5
149
100
AcDbEntity
8
0
100
AcDbCircle
10
2753.1511215021005
20
2953.8973169237661
30
0
40
1.9999999999998863
210
-0
220
0
230
1
0
CIRCLE
5
150
100
AcDbEntity
8
0
100
AcDbCircle
10
2753.1511215021005
20
2977.8973169237656
30
0
40
1.9999999999998863
210
-0
220
0
230
1
0
CIRCLE
5
151
100
AcDbEntity
8
0
100
AcDbCircle
10
2946.9125884037749
20
3002.1999789075585
30
0
40
1.9999999999998863
210
-0
220
0
230
1
0
CIRCLE
5
152
100
AcDbEntity
8
0
100
AcDbCircle
10
2946.9125884037749
20
2978.1999789075589
30
0
40
1.9999999999998863
210
-0
220
0
230
1
0
CIRCLE
5
153
100
AcDbEntity
8
0
100
AcDbCircle
10
3123.8138817819095
20
3007.6180033287164
30
0
40
1.9999999999998863
210
-0
220
0
230
1
0
CIRCLE
5
154
100
AcDbEntity
8
0
100
AcDbCircle
10
3123.8138817819095
20
2983.6180033287164
30
0
40
1.9999999999998863
210
-0
220
0
230
1
0
CIRCLE
5
155
100
AcDbEntity
8
0
100
AcDbCircle
10
3380.8138817819095
20
2983.6180033287164
30
0
40
1.9999999999998863
210
-0
220
0
230
1
0
CIRCLE
5
156
100
AcDbEntity
8
0
100
AcDbCircle
10
3380.8138817819095
20
3007.6180033287164
30
0
40
1.9999999999998863
210
-0
220
0
230
1
0
CIRCLE
5
157
100
AcDbEntity
8
0
100
AcDbCircle
10
2403.3649723559497
20
2814.2675027271521
30
0
40
2.0000000000000284
210
-0
220
0
230
1
0
CIRCLE
5
158
100
AcDbEntity
8
0
100
AcDbCircle
10
2369.5255760606146
20
2816.8934692720104
30
0
40
1.9999999999998863
210
-0
220
0
230
1
0
CIRCLE
5
159
100
AcDbEntity
8
0
100
AcDbCircle
10
1706.8594473070066
20
2349.4962448471733
30
0
40
2.0000000000000284
210
-0
220
0
230
1
0
CIRCLE
5
160
100
AcDbEntity
8
0
100
AcDbCircle
10
1659.8913995254934
20
2352.0709010831602
30
0
40
1.9999999999999574
210
-0
220
0
230
1
0
CIRCLE
5
161
100
AcDbEntity
8
0
100
AcDbCircle
10
1620.7644153929423
20
2354.608680735771
30
0
40
2.0000000000000284
210
-0
220
0
230
1
0
CIRCLE
5
162
100
AcDbEntity
8
0
100
AcDbCircle
10
1400.813881781909
20
2257.2647973382482
30
0
40
1.9999999999999996
210
-0
220
0
230
1
0
CIRCLE
5
163
100
AcDbEntity
8
0
100
AcDbCircle
10
1400.813881781909
20
2291.2647973382482
30
0
40
1.9999999999999973
210
-0
220
0
230
1
0
CIRCLE
5
164
100
AcDbEntity
8
0
100
AcDbCircle
10
1660.8138817819095
20
2303.0833391124206
30
0
40
1.9999999999999929
210
-0
220
0
230
1
0
CIRCLE
5
165
100
AcDbEntity
8
0
100
AcDbCircle
10
1660.8138817819095
20
2333.0875746392653
30
0
40
2.0000000000000284
210
-0
220
0
230
1
0
SPLINE
5
166
100
AcDbEntity
8
0
100
AcDbSpline
70
2
71
3
72
52
73
48
74
0
42
0.000000001
43
0.0000000001
44
0.0000000001
40
0
40
0
40
0
40
0
40
0.047257597774329974
40
0.047257597774329974
40
0.12452111297016445
40
0.12452111297016445
40
0.19558698017400816
40
0.19558698017400816
40
0.27019968646629228
40
0.27019968646629228
40
0.34906801339763383
40
0.34906801339763383
40
0.42803795272707673
40
0.42803795272707673
40
0.50734380388759437
40
0.50734380388759437
40
0.55850772469588106
40
0.55850772469588106
40
0.59698130916941838
40
0.59698130916941838
40
0.601440963448304
40
0.601440963448304
40
0.64047525752961343
40
0.64047525752961343
40
0.69229958313153639
40
0.69229958313153639
40
0.77209447189512592
40
0.77209447189512592
40
0.84396045317995749
40
0.84396045317995749
40
0.91953030459893903
40
0.91953030459893903
40
0.99959866538654985
40
0.99959866538654985
40
1.0783537548374946
40
1.0783537548374946
40
1.1513113055193411
40
1.1513113055193411
40
1.1982942312059768
40
1.1982942312059768
40
1.2184636556922848
40
1.2184636556922848
40
1.2275725348438882
40
1.2275725348438882
40
1.2317997069242508
40
1.2317997069242508
40
1.2611240819347056
40
1.2611240819347056
40
1.2611240819347056
40
1.2611240819347056
10
3512.4966897801528
20
2918.9982278626503
30
0
10
3512.653871797952
20
2918.9956793884503
30
0
10
3512.810827308801
20
2919.0116715340578
30
0
10
3513.2152238453718
20
2919.1018262096918
30
0
10
3513.4531103341237
20
2919.2056449574015
30
0
10
3513.8596344717371
20
2919.4861109566236
30
0
10
3514.0290849621315
20
2919.654034753567
30
0
10
3514.3082341570635
20
2920.0511133009095
30
0
10
3514.412068414199
20
2920.2794087030184
30
0
10
3514.534087459358
20
2920.7762045652626
30
0
10
3514.5458409257353
20
2921.0413369314574
30
0
10
3514.4661143177455
20
2921.561238251541
30
0
10
3514.3752920720372
20
2921.8108493422124
30
0
10
3514.101815284755
20
2922.2614346395949
30
0
10
3513.9214719880738
20
2922.4577528370419
30
0
10
3513.5708035933771
20
2922.7137351649762
30
0
10
3513.4210539685355
20
2922.7961334212678
30
0
10
3513.1436481627388
20
2922.9055097027685
30
0
10
3513.0203550262822
20
2922.9409161005556
30
0
10
3512.8799480801104
20
2922.9670090933005
30
0
10
3512.8653337241731
20
2922.9695571313091
30
0
10
3512.7225401563701
20
2922.9928195714338
30
0
10
3512.5926531655409
20
2923.0011685826903
30
0
10
3512.2905646827976
20
2922.991157713037
30
0
10
3512.119689005151
20
2922.9631912467089
30
0
10
3511.700160811868
20
2922.8373531610391
30
0
10
3511.4634446596961
20
2922.7111398502011
30
0
10
3511.0734516613161
20
2922.3902045695395
30
0
10
3510.9173818327508
20
2922.2061348710399
30
0
10
3510.6715269392776
20
2921.7807739447271
30
0
10
3510.5878000124958
20
2921.540873343642
30
0
10
3510.5116053869187
20
2921.0277444027388
30
0
10
3510.5256439281043
20
2920.7586182993382
30
0
10
3510.6573428332422
20
2920.2460768118067
30
0
10
3510.7720045235146
20
2920.0073444881309
30
0
10
3511.0751736808311
20
2919.6033077678253
30
0
10
3511.2550992135157
20
2919.4372536680817
30
0
10
3511.5924132165533
20
2919.2239771798045
30
0
10
3511.7338690819061
20
2919.1562228842195
30
0
10
3511.9452264738002
20
2919.0839173306749
30
0
10
3512.0097595329439
20
2919.0654087993134
30
0
10
3512.104607250003
20
2919.0433005395157
30
0
10
3512.1342680587131
20
2919.0370938369888
30
0
10
3512.1778830815974
20
2919.0289968894867
30
0
10
3512.1917345569204
20
2919.0265762383087
30
0
10
3512.301868735492
20
2919.0085241993165
30
0
10
3512.3991548936601
20
2918.9998092467386
30
0
10
3512.4966897801528
20
2918.9982278626503
30
0
0
SPLINE
5
167
100
AcDbEntity
8
0
100
AcDbSpline
70
2
71
3
72
52
73
48
74
0
42
0.000000001
43
0.0000000001
44
0.0000000001
40
0
40
0
40
0
40
0
40
0.047257597773223255
40
0.047257597773223255
40
0.12452111296846705
40
0.12452111296846705
40
0.19558698017789033
40
0.19558698017789033
40
0.27019968647923731
40
0.27019968647923731
40
0.34906801342463012
40
0.34906801342463012
40
0.42803795277328832
40
0.42803795277328832
40
0.50734380395528467
40
0.50734380395528467
40
0.55850772478401722
40
0.55850772478401722
40
0.59698130927281645
40
0.59698130927281645
40
0.60144096355457111
40
0.60144096355457111
40
0.64047525766605851
40
0.64047525766605851
40
0.69229958330705843
40
0.69229958330705843
40
0.7720944721402907
40
0.7720944721402907
40
0.84396045349080873
40
0.84396045349080873
40
0.91953030498301913
40
0.91953030498301913
40
0.99959866585155077
40
0.99959866585155077
40
1.0783537553858329
40
1.0783537553858329
40
1.1513113061541524
40
1.1513113061541524
40
1.1982942318968179
40
1.1982942318968179
40
1.2184636564079965
40
1.2184636564079965
40
1.2275725355701497
40
1.2275725355701497
40
1.2317997076533747
40
1.2317997076533747
40
1.2611240826639587
40
1.2611240826639587
40
1.2611240826639587
40
1.2611240826639587
10
3508.0533832441142
20
2893.7989842542111
30
0
10
3508.2105652619089
20
2893.7964357800074
30
0
10
3508.3675207727529
20
2893.8124279256108
30
0
10
3508.7719173093083
20
2893.9025826012285
30
0
10
3509.009803798047
20
2894.0064013489236
30
0
10
3509.4163279356558
20
2894.2868673481098
30
0
10
3509.5857784260602
20
2894.4547911450441
30
0
10
3509.8649276210162
20
2894.8518696923707
30
0
10
3509.9687618781604
20
2895.0801650944713
30
0
10
3510.090780923349
20
2895.5769609567051
30
0
10
3510.102534389739
20
2895.842093322899
30
0
10
3510.0228077817837
20
2896.3619946429803
30
0
10
3509.9319855360914
20
2896.6116057336553
30
0
10
3509.6585087488356
20
2897.0621910310588
30
0
10
3509.4781654521657
20
2897.2585092285158
30
0
10
3509.1274970574727
20
2897.5144915564824
30
0
10
3508.9777474326202
20
2897.5968898127867
30
0
10
3508.7003416268158
20
2897.7062660943038
30
0
10
3508.5770484903578
20
2897.7416724920968
30
0
10
3508.4366415441809
20
2897.767765484848
30
0
10
3508.422027188245
20
2897.7703135228562
30
0
10
3508.2792336204461
20
2897.7935759629863
30
0
10
3508.1493466296206
20
2897.8019249742465
30
0
10
3507.8472581468945
20
2897.7919141046068
30
0
10
3507.6763824692603
20
2897.7639476382892
30
0
10
3507.25685427598
20
2897.6381095526485
30
0
10
3507.0201381238021
20
2897.5118962418237
30
0
10
3506.6301451254044
20
2897.1909609611876
30
0
10
3506.4740752968305
20
2897.0068912626989
30
0
10
3506.2282204033309
20
2896.5815303364034
30
0
10
3506.1444934765368
20
2896.3416297353269
30
0
10
3506.0682988509257
20
2895.8285007944364
30
0
10
3506.0823373920925
20
2895.559374691039
30
0
10
3506.2140362971923
20
2895.0468332034984
30
0
10
3506.3286979874488
20
2894.808100879814
30
0
10
3506.6318671447493
20
2894.4040641594688
30
0
10
3506.8117926774426
20
2894.238010059702
30
0
10
3507.1491066804947
20
2894.0247335713962
30
0
10
3507.2905625458525
20
2893.9569792758034
30
0
10
3507.501919937753
20
2893.8846737222502
30
0
10
3507.566452996899
20
2893.8661651908869
30
0
10
3507.6613007139554
20
2893.8440569310865
30
0
10
3507.6909615226623
20
2893.8378502285595
30
0
10
3507.7345765455484
20
2893.8297532810557
30
0
10
3507.7484280208664
20
2893.8273326298781
30
0
10
3507.8585621994516
20
2893.8092805908814
30
0
10
3507.9558483576202
20
2893.8005656383011
30
0
10
3508.0533832441142
20
2893.7989842542111
30
0
0
SPLINE
5
168
100
AcDbEntity
8
0
100
AcDbSpline
70
2
71
3
72
56
73
52
74
0
42
0.000000001
43
0.0000000001
44
0.0000000001
40
0
40
0
40
0
40
0
40
0.079851349247488171
40
0.079851349247488171
40
0.15203342816596485
40
0.15203342816596485
40
0.22807948411440798
40
0.22807948411440798
40
0.30740056057062781
40
0.30740056057062781
40
0.3860082138464852
40
0.3860082138464852
40
0.45567380819065262
40
0.45567380819065262
40
0.50099676639943813
40
0.50099676639943813
40
0.52055722243058711
40
0.52055722243058711
40
0.52497943546517845
40
0.52497943546517845
40
0.5338293137694492
40
0.5338293137694492
40
0.57260362615252369
40
0.57260362615252369
40
0.62510874690954232
40
0.62510874690954232
40
0.7049021923485741
40
0.7049021923485741
40
0.77682006686160732
40
0.77682006686160732
40
0.85255852342210847
40
0.85255852342210847
40
0.93189973051056818
40
0.93189973051056818
40
1.0105894592193971
40
1.0105894592193971
40
1.0827517832281603
40
1.0827517832281603
40
1.1289835368172074
40
1.1289835368172074
40
1.1488132628971557
40
1.1488132628971557
40
1.1577689090834304
40
1.1577689090834304
40
1.1621546028803824
40
1.1621546028803824
40
1.2006049520271811
40
1.2006049520271811
40
1.2519117469849379
40
1.2519117469849379
40
1.260511650479947
40
1.260511650479947
40
1.260511650479947
40
1.260511650479947
10
3310.7082319308629
20
2887.9037098343751
30
0
10
3310.9597783957292
20
2887.9899282756264
30
0
10
3311.1916810554494
20
2888.1254742817896
30
0
10
3311.5698488918883
20
2888.462447629563
30
0
10
3311.7191078269443
20
2888.6535434408888
30
0
10
3311.9485994280776
20
2889.0910224850513
30
0
10
3312.0226135044463
20
2889.3358241989613
30
0
10
3312.0764026087727
20
2889.850890040288
30
0
10
3312.0514469979762
20
2890.1166711398973
30
0
10
3311.9003500251583
20
2890.6207931425315
30
0
10
3311.7765930355181
20
2890.8544517863511
30
0
10
3311.4649734617442
20
2891.2376110744435
30
0
10
3311.2883693063827
20
2891.3907551329967
30
0
10
3310.9601468661917
20
2891.5878881012191
30
0
10
3310.8224066773673
20
2891.6506916956005
30
0
10
3310.6170084280202
20
2891.7175654525172
30
0
10
3310.554139809467
20
2891.7346894035013
30
0
10
3310.4761723319962
20
2891.7518868944812
30
0
10
3310.4617611873236
20
2891.7548991346034
30
0
10
3310.4184141750156
20
2891.7634611998928
30
0
10
3310.3893876096154
20
2891.7685310331199
30
0
10
3310.2326402873746
20
2891.792352821536
30
0
10
3310.1034386688975
20
2891.799347679088
30
0
10
3309.7998161605201
20
2891.7863871630311
30
0
10
3309.6268790879421
20
2891.7560662238793
30
0
10
3309.2065928198672
20
2891.6239702663834
30
0
10
3308.9714469529254
20
2891.4945573362384
30
0
10
3308.585484267614
20
2891.168222166315
30
0
10
3308.4317660515244
20
2890.9818696392717
30
0
10
3308.1913559299583
20
2890.5524881634501
30
0
10
3308.1108354637672
20
2890.3108605380812
30
0
10
3308.0423517579225
20
2889.7985070380009
30
0
10
3308.0596550037512
20
2889.5320445054081
30
0
10
3308.1963071140331
20
2889.0234483205995
30
0
10
3308.3134819157635
20
2888.7860964408146
30
0
10
3308.6193765335074
20
2888.3874436223159
30
0
10
3308.7988629091233
20
2888.2247142545998
30
0
10
3309.1335396567752
20
2888.0163880075111
30
0
10
3309.2731740661302
20
2887.950404472504
30
0
10
3309.4815140887031
20
2887.8799396583258
30
0
10
3309.5450597980966
20
2887.861897863399
30
0
10
3309.6384289653288
20
2887.840317846958
30
0
10
3309.667624231869
20
2887.8342543283184
30
0
10
3309.7113023307429
20
2887.826197116708
30
0
10
3309.7256891896659
20
2887.8237057808592
30
0
10
3309.8664626269606
20
2887.8009131958065
30
0
10
3309.9944992491455
20
2887.7926320393995
30
0
10
3310.2931805533735
20
2887.8019988491224
30
0
10
3310.4625415004552
20
2887.8292043194028
30
0
10
3310.6538536544076
20
2887.8857217370278
30
0
10
3310.6811406500924
20
2887.8944242019934
30
0
10
3310.7082319308629
20
2887.9037098343751
30
0
0
SPLINE
5
169
100
AcDbEntity
8
0
100
AcDbSpline
70
2
71
3
72
56
73
52
74
0
42
0.000000001
43
0.0000000001
44
0.0000000001
40
0
40
0
40
0
40
0
40
0.079851349246825715
40
0.079851349246825715
40
0.15203342816407264
40
0.15203342816407264
40
0.22807948411011575
40
0.22807948411011575
40
0.30740056056338688
40
0.30740056056338688
40
0.38600821383650108
40
0.38600821383650108
40
0.45567380817743325
40
0.45567380817743325
40
0.50099676638402768
40
0.50099676638402768
40
0.52055722241410451
40
0.52055722241410451
40
0.52497943544867764
40
0.52497943544867764
40
0.53382931375690523
40
0.53382931375690523
40
0.57260362616162752
40
0.57260362616162752
40
0.62510874694710572
40
0.62510874694710572
40
0.70490219242794272
40
0.70490219242794272
40
0.77682006697831518
40
0.77682006697831518
40
0.85255852357826234
40
0.85255852357826234
40
0.9318997307077681
40
0.9318997307077681
40
1.0105894594569036
40
1.0105894594569036
40
1.082751783502109
40
1.082751783502109
40
1.1289835371141459
40
1.1289835371141459
40
1.1488132632034949
40
1.1488132632034949
40
1.1577689093933883
40
1.1577689093933883
40
1.1621546031918231
40
1.1621546031918231
40
1.200604952349684
40
1.200604952349684
40
1.2519117473222232
40
1.2519117473222232
40
1.2605116508179424
40
1.2605116508179424
40
1.2605116508179424
40
1.2605116508179424
10
3315.9176772608707
20
2917.4479424247411
30
0
10
3316.1692237257353
20
2917.5341608659919
30
0
10
3316.4011263854559
20
2917.6697068721546
30
0
10
3316.7792942218957
20
2918.0066802199285
30
0
10
3316.9285531569517
20
2918.1977760312543
30
0
10
3317.1580447580845
20
2918.6352550754145
30
0
10
3317.2320588344555
20
2918.8800567893254
30
0
10
3317.2858479387824
20
2919.3951226306544
30
0
10
3317.2608923279836
20
2919.660903730266
30
0
10
3317.1097953551671
20
2920.1650257328952
30
0
10
3316.9860383655287
20
2920.3986843767143
30
0
10
3316.6744187917539
20
2920.781843664809
30
0
10
3316.4978146363919
20
2920.9349877233622
30
0
10
3316.1695921962009
20
2921.1321206915854
30
0
10
3316.0318520073761
20
2921.1949242859669
30
0
10
3315.8264537580294
20
2921.2617980428831
30
0
10
3315.7635851394771
20
2921.2789219938672
30
0
10
3315.6856176620045
20
2921.2961194848481
30
0
10
3315.6712065173315
20
2921.2991317249703
30
0
10
3315.6278595050171
20
2921.3076937902606
30
0
10
3315.5988329396196
20
2921.3127636234872
30
0
10
3315.4420856173838
20
2921.3365854119029
30
0
10
3315.3128839989063
20
2921.3435802694544
30
0
10
3315.0092614905293
20
2921.330619753398
30
0
10
3314.8363244179518
20
2921.3002988142462
30
0
10
3314.4160381498787
20
2921.1682028567516
30
0
10
3314.1808922829341
20
2921.0387899266066
30
0
10
3313.7949295976205
20
2920.7124547566814
30
0
10
3313.6412113815322
20
2920.5261022296381
30
0
10
3313.4008012599656
20
2920.096720753817
30
0
10
3313.3202807937755
20
2919.8550931284485
30
0
10
3313.2517970879303
20
2919.3427396283687
30
0
10
3313.2691003337586
20
2919.0762770957754
30
0
10
3313.4057524440409
20
2918.5676809109668
30
0
10
3313.5229272457709
20
2918.3303290311815
30
0
10
3313.8288218635143
20
2917.9316762126832
30
0
10
3314.0083082391293
20
2917.7689468449671
30
0
10
3314.3429849867834
20
2917.5606205978766
30
0
10
3314.4826193961399
20
2917.4946370628695
30
0
10
3314.6909594187091
20
2917.4241722486927
30
0
10
3314.7545051281008
20
2917.4061304537654
30
0
10
3314.8478742953366
20
2917.3845504373235
30
0
10
3314.8770695618759
20
2917.3784869186838
30
0
10
3314.9207476607498
20
2917.3704297070744
30
0
10
3314.9351345196737
20
2917.3679383712251
30
0
10
3315.0759079569652
20
2917.3451457861734
30
0
10
3315.203944579152
20
2917.3368646297645
30
0
10
3315.5026258833846
20
2917.3462314394883
30
0
10
3315.6719868304654
20
2917.3734369097697
30
0
10
3315.8632989844109
20
2917.4299543273928
30
0
10
3315.8905859800984
20
2917.4386567923593
30
0
10
3315.9176772608707
20
2917.4479424247411
30
0
0
SPLINE
5
170
100
AcDbEntity
8
0
100
AcDbSpline
70
2
71
3
72
56
73
52
74
0
42
0.000000001
43
0.0000000001
44
0.0000000001
40
0
40
0
40
0
40
0
40
0.079723698011844257
40
0.079723698011844257
40
0.15201913740386663
40
0.15201913740386663
40
0.22816161732023438
40
0.22816161732023438
40
0.30755664460739851
40
0.30755664460739851
40
0.38620369547121952
40
0.38620369547121952
40
0.45551771078617737
40
0.45551771078617737
40
0.50160462543605777
40
0.50160462543605777
40
0.52162201047803569
40
0.52162201047803569
40
0.52618067509607247
40
0.52618067509607247
40
0.5307155693655452
40
0.5307155693655452
40
0.57019045134697022
40
0.57019045134697022
40
0.62200064249745202
40
0.62200064249745202
40
0.70162672362801248
40
0.70162672362801248
40
0.77352959041272507
40
0.77352959041272507
40
0.84920808739215736
40
0.84920808739215736
40
0.92938703639299114
40
0.92938703639299114
40
1.0081493350665163
40
1.0081493350665163
40
1.08086010101338
40
1.08086010101338
40
1.1282179716111134
40
1.1282179716111134
40
1.1486130252417335
40
1.1486130252417335
40
1.1578556574062679
40
1.1578556574062679
40
1.1623858855962761
40
1.1623858855962761
40
1.2021242769774907
40
1.2021242769774907
40
1.2549311769912808
40
1.2549311769912808
40
1.2597336898769893
40
1.2597336898769893
40
1.2597336898769893
40
1.2597336898769893
10
2739.0405660261731
20
2865.8882757747192
30
0
10
2739.2921362378738
20
2865.9738903197758
30
0
10
2739.5241400129003
20
2866.1087921042836
30
0
10
2739.9033100644592
20
2866.4449459290308
30
0
10
2740.0532631777241
20
2866.6360930313531
30
0
10
2740.283921535065
20
2867.073831610689
30
0
10
2740.3584228348695
20
2867.3188573917237
30
0
10
2740.4129591083883
20
2867.8344388867126
30
0
10
2740.3882843150564
20
2868.100546606468
30
0
10
2740.2374908099
20
2868.605306939698
30
0
10
2740.1137911591554
20
2868.8393036219904
30
0
10
2739.8027990794531
20
2869.2220894324259
30
0
10
2739.6271347672509
20
2869.374815224141
30
0
10
2739.2977658487912
20
2869.5735087042513
30
0
10
2739.1575226729165
20
2869.6374409051127
30
0
10
2738.9478622560309
20
2869.7052106011652
30
0
10
2738.8833867201397
20
2869.7225423565233
30
0
10
2738.8033128548636
20
2869.7398249284815
30
0
10
2738.7884237285689
20
2869.7428613356192
30
0
10
2738.7586569872856
20
2869.7485792706248
30
0
10
2738.7437806694415
20
2869.7512623834536
30
0
10
2738.599129241245
20
2869.7756620672203
30
0
10
2738.4675393455154
20
2869.784690338749
30
0
10
2738.1634023030801
20
2869.7755321863197
30
0
10
2737.9921823593677
20
2869.7479984292572
30
0
10
2737.5722139448399
20
2869.6232291053047
30
0
10
2737.3353624308029
20
2869.4977465941265
30
0
10
2736.9444070134532
20
2869.1779501772999
30
0
10
2736.7876708448325
20
2868.9940822617345
30
0
10
2736.5404127208899
20
2868.5688008822813
30
0
10
2736.4560176600162
20
2868.328687237245
30
0
10
2736.3787129630391
20
2867.814946527978
30
0
10
2736.3923207770731
20
2867.5453495335305
30
0
10
2736.5235063037208
20
2867.0320468464975
30
0
10
2736.6379678100197
20
2866.7929563688681
30
0
10
2736.9406124823968
20
2866.3888122538629
30
0
10
2737.1199500015023
20
2866.2228275905072
30
0
10
2737.4578687315488
20
2866.0083842859244
30
0
10
2737.6006977820862
20
2865.9398792597704
30
0
10
2737.8144242874987
20
2865.8669195855741
30
0
10
2737.8798383909311
20
2865.8482517283956
30
0
10
2737.9760930464099
20
2865.8260171767984
30
0
10
2738.006266656058
20
2865.8197777468622
30
0
10
2738.051426473055
20
2865.8115224493376
30
0
10
2738.0663109091038
20
2865.8089753954382
30
0
10
2738.2120269490765
20
2865.7857355415122
30
0
10
2738.3445807418739
20
2865.7779199087413
30
0
10
2738.6528048184164
20
2865.7903690443213
30
0
10
2738.826974881415
20
2865.8206594277499
30
0
10
2739.0101957476077
20
2865.8781431577509
30
0
10
2739.025411571306
20
2865.8831184003616
30
0
10
2739.0405660261731
20
2865.8882757747192
30
0
0
SPLINE
5
171
100
AcDbEntity
8
0
100
AcDbSpline
70
2
71
3
72
56
73
52
74
0
42
0.000000001
43
0.0000000001
44
0.0000000001
40
0
40
0
40
0
40
0
40
0.079723698011900559
40
0.079723698011900559
40
0.1520191374035994
40
0.1520191374035994
40
0.2281616173195084
40
0.2281616173195084
40
0.30755664460611648
40
0.30755664460611648
40
0.38620369546895505
40
0.38620369546895505
40
0.45551771078268177
40
0.45551771078268177
40
0.50160462543188566
40
0.50160462543188566
40
0.52162201047377121
40
0.52162201047377121
40
0.52618067509098709
40
0.52618067509098709
40
0.53071556935801967
40
0.53071556935801967
40
0.57019045131906443
40
0.57019045131906443
40
0.62200064244225195
40
0.62200064244225195
40
0.70162672353073885
40
0.70162672353073885
40
0.77352959027718715
40
0.77352959027718715
40
0.84920808721583518
40
0.84920808721583518
40
0.92938703617391094
40
0.92938703617391094
40
1.008149334806216
40
1.008149334806216
40
1.0808601007141743
40
1.0808601007141743
40
1.1282179712865272
40
1.1282179712865272
40
1.148613024905869
40
1.148613024905869
40
1.1578556570647935
40
1.1578556570647935
40
1.1623858852527023
40
1.1623858852527023
40
1.2021242766330813
40
1.2021242766330813
40
1.2549311766457203
40
1.2549311766457203
40
1.2597336895313977
40
1.2597336895313977
40
1.2597336895313977
40
1.2597336895313977
10
2733.8311206961653
20
2836.3440431843533
30
0
10
2734.0826909078664
20
2836.4296577294094
30
0
10
2734.314694682892
20
2836.5645595139176
30
0
10
2734.6938647344496
20
2836.900713338664
30
0
10
2734.8438178477154
20
2837.0918604409862
30
0
10
2735.0744762050572
20
2837.5295990203231
30
0
10
2735.1489775048613
20
2837.7746248013573
30
0
10
2735.2035137783796
20
2838.2902062963462
30
0
10
2735.1788389850485
20
2838.5563140161007
30
0
10
2735.0280454798917
20
2839.0610743493312
30
0
10
2734.904345829148
20
2839.2950710316236
30
0
10
2734.5933537494457
20
2839.6778568420605
30
0
10
2734.4176894372417
20
2839.8305826337746
30
0
10
2734.0883205187838
20
2840.0292761138844
30
0
10
2733.9480773429091
20
2840.0932083147463
30
0
10
2733.7384169260222
20
2840.1609780107992
30
0
10
2733.6739413901296
20
2840.1783097661569
30
0
10
2733.5938675248594
20
2840.1955923381142
30
0
10
2733.5789783985674
20
2840.1986287452519
30
0
10
2733.5492116572773
20
2840.2043466802588
30
0
10
2733.5343353394337
20
2840.2070297930868
30
0
10
2733.389683911239
20
2840.2314294768535
30
0
10
2733.2580940155085
20
2840.2404577483826
30
0
10
2732.9539569730737
20
2840.2312995959533
30
0
10
2732.7827370293608
20
2840.2037658388913
30
0
10
2732.362768614832
20
2840.0789965149388
30
0
10
2732.1259171007955
20
2839.9535140037601
30
0
10
2731.7349616834467
20
2839.6337175869348
30
0
10
2731.5782255148251
20
2839.4498496713691
30
0
10
2731.3309673908825
20
2839.0245682919167
30
0
10
2731.2465723300083
20
2838.78445464688
30
0
10
2731.1692676330304
20
2838.2707139376107
30
0
10
2731.1828754470671
20
2838.0011169431605
30
0
10
2731.3140609737134
20
2837.4878142561338
30
0
10
2731.4285224800096
20
2837.2487237785053
30
0
10
2731.7311671523889
20
2836.8445796634969
30
0
10
2731.9105046714953
20
2836.6785950001413
30
0
10
2732.2484234015401
20
2836.4641516955594
30
0
10
2732.3912524520765
20
2836.3956466694049
30
0
10
2732.6049789574904
20
2836.3226869952082
30
0
10
2732.6703930609219
20
2836.3040191380296
30
0
10
2732.7666477164007
20
2836.2817845864329
30
0
10
2732.7968213260474
20
2836.2755451564963
30
0
10
2732.8419811430504
20
2836.2672898589708
30
0
10
2732.8568655791023
20
2836.2647428050714
30
0
10
2733.0025816190673
20
2836.2415029511467
30
0
10
2733.1351354118651
20
2836.2336873183745
30
0
10
2733.4433594884094
20
2836.2461364539554
30
0
10
2733.6175295514072
20
2836.2764268373844
30
0
10
2733.8007504175998
20
2836.3339105673845
30
0
10
2733.8159662412977
20
2836.3388858099956
30
0
10
2733.8311206961653
20
2836.3440431843533
30
0
0
SPLINE
5
172
100
AcDbEntity
8
0
100
AcDbSpline
70
2
71
3
72
56
73
52
74
0
42
0.000000001
43
0.0000000001
44
0.0000000001
40
0
40
0
40
0
40
0
40
0.079917059786755063
40
0.079917059786755063
40
0.15269403911902429
40
0.15269403911902429
40
0.22950871567646883
40
0.22950871567646883
40
0.30880496809059105
40
0.30880496809059105
40
0.38715215802463243
40
0.38715215802463243
40
0.45121714174697664
40
0.45121714174697664
40
0.4942663060635798
40
0.4942663060635798
40
0.51310301061522856
40
0.51310301061522856
40
0.51745542620811824
40
0.51745542620811824
40
0.55521952419705434
40
0.55521952419705434
40
0.60483120988660022
40
0.60483120988660022
40
0.68446221476462699
40
0.68446221476462699
40
0.75592008241200792
40
0.75592008241200792
40
0.83120246131714792
40
0.83120246131714792
40
0.91101163686751641
40
0.91101163686751641
40
0.98980107253124849
40
0.98980107253124849
40
1.0658968377259219
40
1.0658968377259219
40
1.1132984832424928
40
1.1132984832424928
40
1.1334161844043582
40
1.1334161844043582
40
1.1415654723168587
40
1.1415654723168587
40
1.1459255774486323
40
1.1459255774486323
40
1.1502694602820254
40
1.1502694602820254
40
1.1884625386609862
40
1.1884625386609862
40
1.239730689015041
40
1.239730689015041
40
1.2599701128031568
40
1.2599701128031568
40
1.2599701128031568
40
1.2599701128031568
10
3036.0612274522937
20
2873.5942573530206
30
0
10
3036.307542175125
20
2873.6954823554915
30
0
10
3036.531197768556
20
2873.8448997317882
30
0
10
3036.8900727058831
20
2874.2057153203336
30
0
10
3037.0284275962122
20
2874.407387359357
30
0
10
3037.2316743093916
20
2874.8627023220597
30
0
10
3037.2901803446712
20
2875.11438762747
30
0
10
3037.309403011081
20
2875.6343906071716
30
0
10
3037.266709701029
20
2875.8978441937197
30
0
10
3037.0824962393326
20
2876.3899033889516
30
0
10
3036.9439395936229
20
2876.6141495599586
30
0
10
3036.6209288210757
20
2876.9618260193211
30
0
10
3036.451519438549
20
2877.093950826229
30
0
10
3036.1387589127871
20
2877.26587982502
30
0
10
3036.005993524419
20
2877.3212540689983
30
0
10
3035.8082731429636
20
2877.3797564964543
30
0
10
3035.7472867085116
20
2877.3947206461939
30
0
10
3035.6714674245732
20
2877.409581763734
30
0
10
3035.6572068272139
20
2877.4122162220169
30
0
10
3035.5189475638326
20
2877.4362058303172
30
0
10
3035.393221540467
20
2877.4459696868275
30
0
10
3035.1021364327762
20
2877.4410801639515
30
0
10
3034.937833744927
20
2877.4178241975105
30
0
10
3034.5221534785555
20
2877.3052662592681
30
0
10
3034.28236062006
20
2877.1856300765371
30
0
10
3033.8849453640851
20
2876.8764408822722
30
0
10
3033.7245940294551
20
2876.6977968328392
30
0
10
3033.4675674127352
20
2876.2816781269544
30
0
10
3033.3770465223852
20
2876.0452685875362
30
0
10
3033.2855029440625
20
2875.5364736039219
30
0
10
3033.2911055512668
20
2875.2678731460319
30
0
10
3033.4063134962257
20
2874.7519590327643
30
0
10
3033.5134655854008
20
2874.5094461611798
30
0
10
3033.8101458869601
20
2874.0870637382791
30
0
10
3033.9940418703463
20
2873.9091660292634
30
0
10
3034.3384199071079
20
2873.6839173541898
30
0
10
3034.4803749790171
20
2873.6134250481518
30
0
10
3034.6922667801232
20
2873.537851041317
30
0
10
3034.7564926758969
20
2873.5185216649415
30
0
10
3034.8479274662236
20
2873.4959447707229
30
0
10
3034.8744176261016
20
2873.4899734062124
30
0
10
3034.9152547022504
20
2873.481637943466
30
0
10
3034.9295195490231
20
2873.4788878139052
30
0
10
3034.9580534826719
20
2873.4737085133374
30
0
10
3034.972321493231
20
2873.4712783428945
30
0
10
3035.1122852418434
20
2873.4489998088047
30
0
10
3035.2395797713966
20
2873.4410357035304
30
0
10
3035.5374931329534
20
2873.4508366771165
30
0
10
3035.7068054197425
20
2873.4783031764337
30
0
10
3035.935210827352
20
2873.5461580423548
30
0
10
3035.9988469283608
20
2873.5686215785263
30
0
10
3036.0612274522937
20
2873.5942573530206
30
0
0
SPLINE
5
173
100
AcDbEntity
8
0
100
AcDbSpline
70
2
71
3
72
56
73
52
74
0
42
0.000000001
43
0.0000000001
44
0.0000000001
40
0
40
0
40
0
40
0
40
0.079917059787236941
40
0.079917059787236941
40
0.15269403912124391
40
0.15269403912124391
40
0.22950871568191406
40
0.22950871568191406
40
0.30880496810075214
40
0.30880496810075214
40
0.38715215804084391
40
0.38715215804084391
40
0.45121714176915484
40
0.45121714176915484
40
0.49426630609056355
40
0.49426630609056355
40
0.51310301064488473
40
0.51310301064488473
40
0.51745542623872121
40
0.51745542623872121
40
0.55521952424092313
40
0.55521952424092313
40
0.60483120994852613
40
0.60483120994852613
40
0.68446221485729308
40
0.68446221485729308
40
0.75592008253361009
40
0.75592008253361009
40
0.83120246147045829
40
0.83120246147045829
40
0.91101163705568622
40
0.91101163705568622
40
0.98980107275476081
40
0.98980107275476081
40
1.0658968379848823
40
1.0658968379848823
40
1.1132984835245812
40
1.1132984835245812
40
1.1334161846969022
40
1.1334161846969022
40
1.1415654726149282
40
1.1415654726149282
40
1.1459255777473887
40
1.1459255777473887
40
1.1502694605788002
40
1.1502694605788002
40
1.1884625389594483
40
1.1884625389594483
40
1.23973068931743
40
1.23973068931743
40
1.2599701131062955
40
1.2599701131062955
40
1.2599701131062955
40
1.2599701131062955
10
3041.270672782302
20
2903.138489943387
30
0
10
3041.5169875051351
20
2903.2397149458584
30
0
10
3041.7406430985657
20
2903.389132322156
30
0
10
3042.0995180358932
20
2903.7499479107014
30
0
10
3042.2378729262209
20
2903.9516199497257
30
0
10
3042.4411196394012
20
2904.4069349124284
30
0
10
3042.4996256746795
20
2904.6586202178382
30
0
10
3042.5188483410893
20
2905.1786231975402
30
0
10
3042.4761550310363
20
2905.4420767840884
30
0
10
3042.29194156934
20
2905.9341359793198
30
0
10
3042.1533849236293
20
2906.1583821503264
30
0
10
3041.8303741510827
20
2906.5060586096884
30
0
10
3041.6609647685568
20
2906.6381834165959
30
0
10
3041.3482042427941
20
2906.8101124153873
30
0
10
3041.215438854425
20
2906.8654866593661
30
0
10
3041.017718472971
20
2906.9239890868212
30
0
10
3040.956732038519
20
2906.9389532365608
30
0
10
3040.880912754581
20
2906.9538143541008
30
0
10
3040.8666521572213
20
2906.9564488123838
30
0
10
3040.7283928938396
20
2906.9804384206845
30
0
10
3040.6026668704744
20
2906.9902022771939
30
0
10
3040.311581762785
20
2906.9853127543183
30
0
10
3040.1472790749358
20
2906.9620567878774
30
0
10
3039.7315988085611
20
2906.8494988496341
30
0
10
3039.4918059500674
20
2906.7298626669021
30
0
10
3039.0943906940938
20
2906.420673472639
30
0
10
3038.9340393594639
20
2906.2420294232056
30
0
10
3038.6770127427421
20
2905.8259107173208
30
0
10
3038.586491852393
20
2905.5895011779016
30
0
10
3038.4949482740694
20
2905.0807061942878
30
0
10
3038.5005508812746
20
2904.8121057363987
30
0
10
3038.6157588262331
20
2904.2961916231307
30
0
10
3038.7229109154077
20
2904.0536787515466
30
0
10
3039.0195912169675
20
2903.6312963286441
30
0
10
3039.2034872003551
20
2903.4533986196288
30
0
10
3039.5478652371157
20
2903.2281499445553
30
0
10
3039.6898203090259
20
2903.1576576385178
30
0
10
3039.901712110131
20
2903.0820836316825
30
0
10
3039.9659380059052
20
2903.062754255307
30
0
10
3040.0573727962346
20
2903.0401773610884
30
0
10
3040.0838629561158
20
2903.0342059965774
30
0
10
3040.1247000322451
20
2903.0258705338342
30
0
10
3040.1389648790068
20
2903.0231204042752
30
0
10
3040.1674988126929
20
2903.0179411037007
30
0
10
3040.1817668232457
20
2903.0155109332595
30
0
10
3040.3217305718508
20
2902.9932323991707
30
0
10
3040.4490251014045
20
2902.9852682938958
30
0
10
3040.7469384629658
20
2902.9950692674829
30
0
10
3040.9162507497522
20
2903.0225357668005
30
0
10
3041.1446561573553
20
2903.0903906327198
30
0
10
3041.2082922583668
20
2903.1128541688913
30
0
10
3041.270672782302
20
2903.138489943387
30
0
0
SPLINE
5
174
100
AcDbEntity
8
0
100
AcDbSpline
70
2
71
3
72
54
73
50
74
0
42
0.000000001
43
0.0000000001
44
0.0000000001
40
0
40
0
40
0
40
0
40
0.059877863500703378
40
0.059877863500703378
40
0.13952304697039192
40
0.13952304697039192
40
0.21302883473107098
40
0.21302883473107098
40
0.29004779943075698
40
0.29004779943075698
40
0.36940706703366383
40
0.36940706703366383
40
0.44821103914632776
40
0.44821103914632776
40
0.51207025275959805
40
0.51207025275959805
40
0.5554298494071237
40
0.5554298494071237
40
0.57715303928378214
40
0.57715303928378214
40
0.5823899142212462
40
0.5823899142212462
40
0.62824896641325267
40
0.62824896641325267
40
0.68747350531143792
40
0.68747350531143792
40
0.7671069051408218
40
0.7671069051408218
40
0.84052197515079075
40
0.84052197515079075
40
0.91741931972983737
40
0.91741931972983737
40
0.99678913290571058
40
0.99678913290571058
40
1.075618357691438
40
1.075618357691438
40
1.1403710556292426
40
1.1403710556292426
40
1.1889290318942969
40
1.1889290318942969
40
1.1997591376723149
40
1.1997591376723149
40
1.2050229249762112
40
1.2050229249762112
40
1.2102642015936518
40
1.2102642015936518
40
1.2557953107043676
40
1.2557953107043676
40
1.25987646769671
40
1.25987646769671
40
1.25987646769671
40
1.25987646769671
10
2413.4843458697414
20
2677.037602985476
30
0
10
2413.6831635116832
20
2677.0547720273198
30
0
10
2413.8783005594046
20
2677.101601809673
30
0
10
2414.3092865344129
20
2677.2762115974556
30
0
10
2414.5330311553162
20
2677.423878841113
30
0
10
2414.8952776570204
20
2677.7835402339747
30
0
10
2415.0359540969725
20
2677.9866536691584
30
0
10
2415.2416832413173
20
2678.4442766903385
30
0
10
2415.3008865784982
20
2678.696522422505
30
0
10
2415.3209883903401
20
2679.2173900310199
30
0
10
2415.2786466544512
20
2679.4811316460091
30
0
10
2415.094451541906
20
2679.9750889871093
30
0
10
2414.9550896966148
20
2680.2007182839457
30
0
10
2414.6311007239974
20
2680.5487385040988
30
0
10
2414.4621379722053
20
2680.6803720803637
30
0
10
2414.1489875319398
20
2680.8524917681352
30
0
10
2414.0151780308879
20
2680.9081670750816
30
0
10
2413.8070879863735
20
2680.9693625303034
30
0
10
2413.7365743857249
20
2680.9860018323407
30
0
10
2413.648135621459
20
2681.0018620794654
30
0
10
2413.6309171881603
20
2681.0047178654304
30
0
10
2413.4625747341893
20
2681.0303791703172
30
0
10
2413.309341807249
20
2681.0360161731064
30
0
10
2412.9601842419506
20
2681.0088206980981
30
0
10
2412.7667457119787
20
2680.9644465565325
30
0
10
2412.3358202615668
20
2680.7956834171637
30
0
10
2412.1104001768308
20
2680.6506648146724
30
0
10
2411.7442105874711
20
2680.2955140374006
30
0
10
2411.6012978358558
20
2680.0943495158576
30
0
10
2411.3903123387518
20
2679.6399081172945
30
0
10
2411.3280673805994
20
2679.3888255815386
30
0
10
2411.3013317278715
20
2678.8686277354668
30
0
10
2411.3403125394389
20
2678.6043323608642
30
0
10
2411.5182474702665
20
2678.107959788671
30
0
10
2411.6547854866444
20
2677.8805102876067
30
0
10
2411.9764207305884
20
2677.5261691306196
30
0
10
2412.1463822815813
20
2677.3908987734558
30
0
10
2412.4758280168708
20
2677.2063049276335
30
0
10
2412.6260877659302
20
2677.1446272850285
30
0
10
2412.8169300249751
20
2677.09216331979
30
0
10
2412.851984917972
20
2677.0835397678902
30
0
10
2412.9043957052158
20
2677.072141577496
30
0
10
2412.9215858677971
20
2677.0686392958496
30
0
10
2412.9559803207057
20
2677.0621019269879
30
0
10
2412.9731826901839
20
2677.0590651997163
30
0
10
2413.1401863984861
20
2677.0318350393263
30
0
10
2413.2922447586134
20
2677.0245388989606
30
0
10
2413.4572322619256
20
2677.0354008361751
30
0
10
2413.470794851683
20
2677.0364327774714
30
0
10
2413.4843458697414
20
2677.037602985476
30
0
0
SPLINE
5
175
100
AcDbEntity
8
0
100
AcDbSpline
70
2
71
3
72
54
73
50
74
0
42
0.000000001
43
0.0000000001
44
0.0000000001
40
0
40
0
40
0
40
0
40
0.059877863501768172
40
0.059877863501768172
40
0.13952304697544224
40
0.13952304697544224
40
0.21302883474209408
40
0.21302883474209408
40
0.29004779945044251
40
0.29004779945044251
40
0.36940706706472859
40
0.36940706706472859
40
0.44821103919109762
40
0.44821103919109762
40
0.51207025281747698
40
0.51207025281747698
40
0.55542984947522567
40
0.55542984947522567
40
0.57715303935780704
40
0.57715303935780704
40
0.58238991429685683
40
0.58238991429685683
40
0.62824896650386608
40
0.62824896650386608
40
0.68747350542328545
40
0.68747350542328545
40
0.76710690528377201
40
0.76710690528377201
40
0.84052197532465778
40
0.84052197532465778
40
0.91741931993846015
40
0.91741931993846015
40
0.99678913315268414
40
0.99678913315268414
40
1.075618357978962
40
1.075618357978962
40
1.1403710559521603
40
1.1403710559521603
40
1.1889290322452863
40
1.1889290322452863
40
1.1997591380299808
40
1.1997591380299808
40
1.2050229253373834
40
1.2050229253373834
40
1.2102642019584788
40
1.2102642019584788
40
1.255795311102365
40
1.255795311102365
40
1.2598764680957184
40
1.2598764680957184
40
1.2598764680957184
40
1.2598764680957184
10
2426.507959194762
20
2750.8981844613913
30
0
10
2426.7067768367069
20
2750.9153535032356
30
0
10
2426.9019138844278
20
2750.9621832855896
30
0
10
2427.332899859437
20
2751.1367930733732
30
0
10
2427.5566444803399
20
2751.2844603170315
30
0
10
2427.9188909820436
20
2751.6441217098927
30
0
10
2428.0595674219944
20
2751.8472351450773
30
0
10
2428.2652965663397
20
2752.3048581662574
30
0
10
2428.3244999035187
20
2752.5571038984244
30
0
10
2428.3446017153601
20
2753.0779715069393
30
0
10
2428.3022599794704
20
2753.3417131219285
30
0
10
2428.1180648669251
20
2753.8356704630291
30
0
10
2427.9787030216321
20
2754.0612997598641
30
0
10
2427.6547140490156
20
2754.4093199800163
30
0
10
2427.485751297223
20
2754.5409535562803
30
0
10
2427.1726008569576
20
2754.7130732440519
30
0
10
2427.0387913559052
20
2754.7687485509978
30
0
10
2426.8307013113922
20
2754.8299440062196
30
0
10
2426.7601877107436
20
2754.846583308256
30
0
10
2426.6717489464791
20
2754.8624435553807
30
0
10
2426.6545305131804
20
2754.8652993413457
30
0
10
2426.4861880592071
20
2754.890960646233
30
0
10
2426.3329551322668
20
2754.8965976490217
30
0
10
2425.983797566968
20
2754.8694021740134
30
0
10
2425.7903590369965
20
2754.8250280324473
30
0
10
2425.3594335865832
20
2754.6562648930781
30
0
10
2425.1340135018481
20
2754.5112462905849
30
0
10
2424.7678239124884
20
2754.1560955133136
30
0
10
2424.6249111608749
20
2753.9549309917697
30
0
10
2424.4139256637704
20
2753.5004895932066
30
0
10
2424.3516807056194
20
2753.2494070574503
30
0
10
2424.3249450528915
20
2752.7292092113785
30
0
10
2424.3639258644607
20
2752.4649138367758
30
0
10
2424.5418607952884
20
2751.9685412645822
30
0
10
2424.6783988116676
20
2751.7410917635193
30
0
10
2425.0000340556112
20
2751.3867506065321
30
0
10
2425.1699956066054
20
2751.2514802493697
30
0
10
2425.4994413418926
20
2751.0668864035479
30
0
10
2425.649701090952
20
2751.0052087609438
30
0
10
2425.8405433499961
20
2750.9527447957053
30
0
10
2425.8755982429934
20
2750.9441212438055
30
0
10
2425.9280090302364
20
2750.9327230534113
30
0
10
2425.9451991928177
20
2750.9292207717654
30
0
10
2425.9795936457263
20
2750.9226834029032
30
0
10
2425.9967960152048
20
2750.9196466756316
30
0
10
2426.1637997235089
20
2750.8924165152416
30
0
10
2426.3158580836362
20
2750.8851203748759
30
0
10
2426.4808455869393
20
2750.8959823120899
30
0
10
2426.4944081766998
20
2750.8970142533867
30
0
10
2426.507959194762
20
2750.8981844613913
30
0
0
LINE
5
176
100
AcDbEntity
8
0
100
AcDbLine
10
3673.592032351954
20
2866.4180170855798
30
0
11
3685.921052966306
21
2936.3393675494463
31
0
0
SPLINE
5
177
100
AcDbEntity
8
0
100
AcDbSpline
70
0
71
3
72
34
73
30
74
0
42
0.000000001
43
0.0000000001
44
0.0000000001
40
-185.23373965631941
40
-185.23373965631941
40
-185.23373965631941
40
-185.23373965631941
40
-183.03446577709863
40
-183.03446577709863
40
-182.71522777308874
40
-182.71522777308874
40
-182.34890858920411
40
-182.34890858920411
40
-179.37559167208198
40
-179.37559167208198
40
-169.37537074868379
40
-169.37537074868379
40
-159.48298014586277
40
-159.48298014586277
40
-146.10895753540635
40
-146.10895753540635
40
-126.50577936882655
40
-126.50577936882655
40
-96.392703182233603
40
-96.392703182233603
40
-78.540688201631838
40
-78.540688201631838
40
-58.865159266592144
40
-58.865159266592144
40
-39.872638424735953
40
-39.872638424735953
40
-19.095479507436178
40
-19.095479507436178
40
0
40
0
40
0
40
0
10
2028.1136938947727
20
2394.4581673976618
30
0
10
2029.3679400899466
20
2401.5713510416758
30
0
10
2031.037001707318
20
2408.5942874996995
30
0
10
2033.3657352913565
20
2416.5299456642329
30
0
10
2033.6685053181009
20
2417.5335656779735
30
0
10
2034.3346394172063
20
2419.6839383113111
30
0
10
2034.7003339105827
20
2420.8299038220393
30
0
10
2038.1207871182428
20
2431.2491262607759
30
0
10
2041.7909794654381
20
2440.320203028662
30
0
10
2059.8922760591213
20
2478.8697810221361
30
0
10
2079.7217388561467
20
2506.8723628342573
30
0
10
2121.8990431069205
20
2556.5360731636029
30
0
10
2145.6364741405118
20
2579.9365840316427
30
0
10
2202.7875447096499
20
2630.4136355761188
30
0
10
2238.6357196863769
20
2657.6352372548681
30
0
10
2328.1701808387834
20
2718.573753410165
30
0
10
2385.3130730185503
20
2751.4386709725886
30
0
10
2532.7942741759171
20
2823.4487908132869
30
0
10
2625.8618681285179
20
2857.2735109116225
30
0
10
2781.8478287858343
20
2895.0608627025686
30
0
10
2839.7087056780711
20
2905.1559854325574
30
0
10
2964.4378135599882
20
2920.6944464671483
30
0
10
3031.1276653746072
20
2925.4426776732789
30
0
10
3158.8158956737925
20
2931.5103444593456
30
0
10
3224.2167285384967
20
2933.1402891478324
30
0
10
3354.9336039093359
20
2935.3250572695692
30
0
10
3425.3778333905461
20
2935.868224896326
30
0
10
3558.4702751816576
20
2936.4247020445137
30
0
10
3622.4542957292297
20
2936.4667576085285
30
0
10
3685.921052966306
20
2936.3393675494463
30
0
0
LINE
5
178
100
AcDbEntity
8
0
100
AcDbLine
10
2028.1136938947727
20
2394.4581673976618
30
0
11
2185.6829343767154
21
2366.6744589708933
31
0
0
SPLINE
5
179
100
AcDbEntity
8
0
100
AcDbSpline
70
0
71
3
72
26
73
22
74
0
42
0.000000001
43
0.0000000001
44
0.0000000001
40
-66.851354111461887
40
-66.851354111461887
40
-66.851354111461887
40
-66.851354111461887
40
-61.52282391269592
40
-61.52282391269592
40
-55.575492375704748
40
-55.575492375704748
40
-50.873980905430635
40
-50.873980905430635
40
-44.537122348952536
40
-44.537122348952536
40
-38.783136974073315
40
-38.783136974073315
40
-33.152467384767817
40
-33.152467384767817
40
-27.490965088849808
40
-27.490965088849808
40
-13.742920584319567
40
-13.742920584319567
40
-5.3389623566859319
40
-5.3389623566859319
40
0
40
0
40
0
40
0
10
3673.592032351954
20
2866.4180170855798
30
0
10
3622.1945153168135
20
2870.4781425526694
30
0
10
3572.0586910560992
20
2872.9278396055838
30
0
10
3461.2879992760008
20
2875.1149029092803
30
0
10
3402.6905483504825
20
2874.3866345866286
30
0
10
3305.5950376997071
20
2872.6456067655836
30
0
10
3258.280209166137
20
2871.5827519263321
30
0
10
3155.6134226454351
20
2868.7826482128594
30
0
10
3091.1280553512088
20
2866.6066981654403
30
0
10
2976.447761352058
20
2859.5222843843994
30
0
10
2920.4232792259027
20
2854.5993722701355
30
0
10
2812.4019038919391
20
2838.6388252295096
30
0
10
2759.9487034965409
20
2827.7102302409021
30
0
10
2656.1841398680772
20
2796.1785605046002
30
0
10
2607.0144271400313
20
2776.1787451303412
30
0
10
2442.2656463295466
20
2690.3695703302737
30
0
10
2350.7735821991641
20
2609.1536877600511
30
0
10
2259.6514283207689
20
2509.6461037849695
30
0
10
2228.6765249927616
20
2468.9498227716226
30
0
10
2195.5645642185837
20
2405.0170339426127
30
0
10
2188.773271322952
20
2384.2006307105753
30
0
10
2185.6829343767154
20
2366.6744589708933
30
0
0
LINE
5
180
100
AcDbEntity
8
0
100
AcDbLine
10
3674.1027361538127
20
2638.6216185148669
30
0
11
3756.8342295526436
21
2721.3531119136869
31
0
0
SPLINE
5
181
100
AcDbEntity
8
0
100
AcDbSpline
70
4
71
5
72
26
73
20
74
0
42
0.000000001
43
0.0000000001
44
0.0000000001
40
0
40
0
40
0
40
0
40
0
40
0
40
0.066666666666666666
40
0.13333333333333333
40
0.20000000000000001
40
0.26666666666666666
40
0.33333333333333331
40
0.39999999999999997
40
0.46666666666666662
40
0.53333333333333333
40
0.59999999999999998
40
0.66666666666666663
40
0.73333333333333328
40
0.79999999999999993
40
0.86666666666666659
40
0.93333333333333324
40
1
40
1
40
1
40
1
40
1
40
1
41
1
41
1
41
1
41
1
41
1
41
1
41
1
41
1
41
1
41
1
41
1
41
1
41
1
41
1
41
1
41
1
41
1
41
1
41
1
41
1
10
3756.8342295526436
20
2721.3531119136869
30
0
10
3746.4157638810316
20
2731.7715775853012
30
0
10
3723.8845058023621
20
2751.5414956410355
30
0
10
3685.004782260366
20
2777.995414328384
30
0
10
3623.2344535571133
20
2806.61895525196
30
0
10
3531.2375994885492
20
2830.0927157782307
30
0
10
3427.4531750354645
20
2840.0433822325967
30
0
10
3316.2574446712078
20
2835.9472413475332
30
0
10
3203.5319553741347
20
2818.6230192765943
30
0
10
3097.0327722624579
20
2791.1414033892397
30
0
10
3006.3342957680152
20
2759.342621404975
30
0
10
2944.3779893199048
20
2733.889131653425
30
0
10
2906.4360619803874
20
2715.6893196931833
30
0
10
2881.1129174749958
20
2701.5604518252449
30
0
10
2855.1554028320907
20
2686.3319248372363
30
0
10
2822.1076966158116
20
2666.8800567621774
30
0
10
2790.7226199093384
20
2647.4030144902376
30
0
10
2765.8765651099798
20
2630.7310801085282
30
0
10
2749.0587616949933
20
2618.7623922218922
30
0
10
2740.5858501250309
20
2612.5643194932582
30
0
0
LINE
5
182
100
AcDbEntity
8
0
100
AcDbLine
10
2740.5858501250309
20
2612.5643194932577
30
0
11
2797.8614994011373
21
2555.2886702171436
31
0
0
SPLINE
5
183
100
AcDbEntity
8
0
100
AcDbSpline
70
4
71
5
72
26
73
20
74
0
42
0.000000001
43
0.0000000001
44
0.0000000001
40
0
40
0
40
0
40
0
40
0
40
0
40
0.066666666666666666
40
0.13333333333333333
40
0.20000000000000001
40
0.26666666666666666
40
0.33333333333333331
40
0.39999999999999997
40
0.46666666666666662
40
0.53333333333333333
40
0.59999999999999998
40
0.66666666666666663
40
0.73333333333333328
40
0.79999999999999993
40
0.86666666666666659
40
0.93333333333333324
40
1
40
1
40
1
40
1
40
1
40
1
41
1
41
1
41
1
41
1
41
1
41
1
41
1
41
1
41
1
41
1
41
1
41
1
41
1
41
1
41
1
41
1
41
1
41
1
41
1
41
1
10
2797.8614994011373
20
2555.2886702171431
30
0
10
2799.4216859815247
20
2556.8488567975319
30
0
10
2806.5073327483724
20
2562.3789682648794
30
0
10
2829.0493800555114
20
2577.9141141420487
30
0
10
2872.3045931910383
20
2606.3672298590513
30
0
10
2908.0842190401854
20
2629.4124543359931
30
0
10
2905.7878786406927
20
2627.9014889329123
30
0
10
2912.8105921208039
20
2632.9782145386348
30
0
10
2947.9315991581502
20
2651.8837908421474
30
0
10
3017.7194698539161
20
2683.1168328808594
30
0
10
3115.5117487757216
20
2717.5791696053884
30
0
10
3222.7850596904732
20
2744.1073312512231
30
0
10
3327.3884538924813
20
2757.1841849108791
30
0
10
3422.4623848390984
20
2755.251535723321
30
0
10
3504.8379412123581
20
2739.5300123085831
30
0
10
3573.9756440869201
20
2712.8447383305961
30
0
10
3619.4319714108356
20
2685.4129929953074
30
0
10
3648.593628507122
20
2662.6981319168244
30
0
10
3665.9475534011203
20
2646.7768012675597
30
0
10
3674.1027361538127
20
2638.6216185148669
30
0
0
CIRCLE
5
184
100
AcDbEntity
8
0
100
AcDbCircle
10
3117.5372972951182
20
2749.4751709348748
30
0
40
2.0000000000000111
210
0
220
-0
230
1
0
CIRCLE
5
185
100
AcDbEntity
8
0
100
AcDbCircle
10
3135.2149668247803
20
2731.7975014052104
30
0
40
1.9999999999999938
210
0
220
-0
230
1
0
CIRCLE
5
186
100
AcDbEntity
8
0
100
AcDbCircle
10
2935.124117445469
20
2655.111770142526
30
0
40
2.0000000000000018
210
0
220
-0
230
1
0
CIRCLE
5
187
100
AcDbEntity
8
0
100
AcDbCircle
10
2920.9819818217393
20
2669.253905766258
30
0
40
1.9999999999999978
210
0
220
-0
230
1
0
LINE
5
188
100
AcDbEntity
8
0
100
AcDbLine
10
2829.4138817820467
20
2294.6180033287219
30
0
11
2820.4138817818944
21
2294.6180033287219
31
0
0
LINE
5
189
100
AcDbEntity
8
0
100
AcDbLine
10
2820.4138817818944
20
2294.6180033287219
30
0
11
2802.4138817819103
21
2274.618003328716
31
0
0
LINE
5
190
100
AcDbEntity
8
0
100
AcDbLine
10
2802.4138817819103
20
2274.618003328716
30
0
11
2802.4138817819094
21
1965.6180033287162
31
0
0
LINE
5
191
100
AcDbEntity
8
0
100
AcDbLine
10
2802.4138817819094
20
1965.6180033287162
30
0
11
3149.9138817819094
21
1965.618003328716
31
0
0
LINE
5
192
100
AcDbEntity
8
0
100
AcDbLine
10
3149.9138817819094
20
1965.618003328716
30
0
11
3149.9138817819094
21
2051.6180033287164
31
0
0
LINE
5
193
100
AcDbEntity
8
0
100
AcDbLine
10
3149.9138817819094
20
2051.6180033287164
30
0
11
3607.1138817819092
21
2051.618003328716
31
0
0
LINE
5
194
100
AcDbEntity
8
0
100
AcDbLine
10
3607.1138817819092
20
2051.618003328716
30
0
11
3607.1138817819092
21
1965.6180033287158
31
0
0
LINE
5
195
100
AcDbEntity
8
0
100
AcDbLine
10
3607.1138817819092
20
1965.6180033287158
30
0
11
3746.8138817819095
21
1965.6180033287158
31
0
0
LINE
5
196
100
AcDbEntity
8
0
100
AcDbLine
10
3746.8138817819095
20
1965.6180033287158
30
0
11
3746.8138817819099
21
2354.618003328716
31
0
0
LINE
5
197
100
AcDbEntity
8
0
100
AcDbLine
10
3746.8138817819099
20
2354.618003328716
30
0
11
3746.8123836931995
21
2400.4512014807287
31
0
0
LINE
5
198
100
AcDbEntity
8
0
100
AcDbLine
10
3746.8123836931995
20
2400.4512014807287
30
0
11
3732.0623836932
21
2400.4512014807287
31
0
0
ARC
5
199
100
AcDbEntity
8
0
100
AcDbCircle
10
3728.8123836932
20
2400.4512014807287
30
0
40
3.2500000000001705
210
0
220
0
230
1
100
AcDbArc
50
-269.99999999998397
51
0
0
LINE
5
200
100
AcDbEntity
8
0
100
AcDbLine
10
3728.8123836931991
20
2403.7012014807287
30
0
11
3728.8123836931991
21
2467.2012014807292
31
0
0
ARC
5
201
100
AcDbEntity
8
0
100
AcDbCircle
10
3728.8123836932
20
2470.4512014807287
30
0
40
3.2499999999993179
210
0
220
0
230
1
100
AcDbArc
50
0
51
269.99999999998397
0
LINE
5
202
100
AcDbEntity
8
0
100
AcDbLine
10
3732.0623836931991
20
2470.4512014807287
30
0
11
3746.8123836931995
21
2470.4512014807287
31
0
0
LINE
5
203
100
AcDbEntity
8
0
100
AcDbLine
10
3746.8123836931995
20
2470.4512014807287
30
0
11
3746.8123836931995
21
2480.4512014807287
31
0
0
SPLINE
5
204
100
AcDbEntity
8
0
100
AcDbSpline
70
0
71
3
72
18
73
14
74
0
42
0.000000001
43
0.0000000001
44
0.0000000001
40
-141.38027431532734
40
-141.38027431532734
40
-141.38027431532734
40
-141.38027431532734
40
-117.38272827978838
40
-117.38272827978838
40
-96.473118631201231
40
-96.473118631201231
40
-78.799122885101823
40
-78.799122885101823
40
-61.484475446369899
40
-61.484475446369899
40
-39.553087060809681
40
-39.553087060809681
40
-38.537697387156385
40
-38.537697387156385
40
-38.537697387156385
40
-38.537697387156385
10
3746.8123836931995
20
2480.4512014807287
30
0
10
3692.4429695150329
20
2532.142328782847
30
0
10
3623.1465847799864
20
2586.5325859408676
30
0
10
3459.9615988532914
20
2664.5279510663227
30
0
10
3382.7352402439919
20
2685.2611943340562
30
0
10
3248.7812755921423
20
2697.9081842939186
30
0
10
3186.7313205244445
20
2694.1744814463254
30
0
10
3068.661903771037
20
2662.8719879422133
30
0
10
3015.0248400608257
20
2636.4639055949237
30
0
10
2906.6089100845597
20
2552.5840774583489
30
0
10
2864.4630516722009
20
2495.8061156194608
30
0
10
2833.461608952653
20
2443.0267809779825
30
0
10
2832.1045831668789
20
2440.6843659236406
30
0
10
2830.7614426070081
20
2438.334125899526
30
0
0
LINE
5
205
100
AcDbEntity
8
0
100
AcDbLine
10
2830.7614426070081
20
2438.334125899526
30
0
11
2829.4138817819085
21
2419.6180033287264
31
0
0
LINE
5
206
100
AcDbEntity
8
0
100
AcDbLine
10
2829.4138817819085
20
2419.6180033287264
30
0
11
2829.4138817820467
21
2294.6180033287219
31
0
0
CIRCLE
5
207
100
AcDbEntity
8
0
100
AcDbCircle
10
2942.2937128119333
20
2523.1315897557802
30
0
40
15
210
-0
220
0
230
1
0
CIRCLE
5
208
100
AcDbEntity
8
0
100
AcDbCircle
10
3255.0581335970683
20
2654.6868054914603
30
0
40
15
210
-0
220
0
230
1
0
CIRCLE
5
209
100
AcDbEntity
8
0
100
AcDbCircle
10
2833.6634513045647
20
1974.618003328716
30
0
40
2.0000000000000329
210
-0
220
0
230
1
0
CIRCLE
5
210
100
AcDbEntity
8
0
100
AcDbCircle
10
2863.6634513045647
20
1974.618003328716
30
0
40
2.0000000000000284
210
-0
220
0
230
1
0
CIRCLE
5
211
100
AcDbEntity
8
0
100
AcDbCircle
10
3696.8138817819099
20
2065.6180033287155
30
0
40
25
210
-0
220
0
230
1
0
CIRCLE
5
212
100
AcDbEntity
8
0
100
AcDbCircle
10
3696.8138817819099
20
2165.6180033287155
30
0
40
25
210
-0
220
0
230
1
0
CIRCLE
5
213
100
AcDbEntity
8
0
100
AcDbCircle
10
3696.8138817819099
20
2265.6180033287155
30
0
40
25
210
-0
220
0
230
1
0
CIRCLE
5
214
100
AcDbEntity
8
0
100
AcDbCircle
10
2913.9138817819098
20
2232.1180033287219
30
0
40
56.500000000000057
210
-0
220
0
230
1
0
CIRCLE
5
215
100
AcDbEntity
8
0
100
AcDbCircle
10
2913.9138817819098
20
2065.6180033287164
30
0
40
56.500000000000057
210
-0
220
0
230
1
0
CIRCLE
5
216
100
AcDbEntity
8
0
100
AcDbCircle
10
3656.8123836931995
20
2505.6462401398262
30
0
40
15
210
-0
220
0
230
1
0
CIRCLE
5
217
100
AcDbEntity
8
0
100
AcDbCircle
10
2719.9396232518966
20
2392.3157353834363
30
0
40
14.999999999999996
210
-0
220
0
230
1
0
ARC
5
218
100
AcDbEntity
8
0
100
AcDbCircle
10
2778.0256020396541
20
2449.9957134393817
30
0
40
3.2500000000001887
210
0
220
0
230
1
100
AcDbArc
50
-253.61038382825325
51
16.389616171749008
0
LINE
5
219
100
AcDbEntity
8
0
100
AcDbLine
10
2777.1085573597243
20
2453.1136501056749
30
0
11
2758.2738704719436
21
2517.1512724056893
31
0
0
LINE
5
220
100
AcDbEntity
8
0
100
AcDbLine
10
2758.2738704719436
20
2517.1512724056893
30
0
11
2757.1761784478012
21
2516.8284202317423
31
0
0
SPLINE
5
221
100
AcDbEntity
8
0
100
AcDbSpline
70
0
71
3
72
35
73
31
74
0
42
0.000000001
43
0.0000000001
44
0.0000000001
40
-3.6085847378690739
40
-3.6085847378690739
40
-3.6085847378690739
40
-3.6085847378690739
40
-0.05870360611110903
40
-0.05870360611110903
40
-0.05870360611110903
40
0.71171600703452798
40
0.71171600703452798
40
0.71171600703452798
40
15.454116571852204
40
15.454116571852204
40
15.454116571852204
40
29.731570722271769
40
29.731570722271769
40
29.731570722271769
40
37.608652084381696
40
37.608652084381696
40
37.608652084381696
40
47.159200291579239
40
47.159200291579239
40
47.159200291579239
40
49.013969621098241
40
49.013969621098241
40
49.013969621098241
40
55.657074480651104
40
55.657074480651104
40
55.657074480651104
40
57.532821190990944
40
57.532821190990944
40
57.532821190990944
40
63.071389774046331
40
63.071389774046331
40
63.071389774046331
40
63.071389774046331
10
2757.1761784478012
20
2516.8284202317423
30
0
10
2751.5354060152235
20
2506.4264931547486
30
0
10
2745.8946335826449
20
2496.0245660777541
30
0
10
2740.2538611500672
20
2485.62263900076
30
0
10
2739.0296619292899
20
2483.3651412600798
30
0
10
2737.805462708513
20
2481.1076435194
30
0
10
2736.5812634877357
20
2478.8501457787197
30
0
10
2714.3635124303028
20
2437.8792629649629
30
0
10
2688.8035775748699
20
2396.6620242912009
30
0
10
2657.3416483549299
20
2356.4005399495245
30
0
10
2626.8719667080045
20
2317.408823899701
30
0
10
2590.8876213624881
20
2279.2877544928365
30
0
10
2546.6590340736707
20
2243.0606876172474
30
0
10
2522.2226909702499
20
2223.0451933392665
30
0
10
2493.1406399683838
20
2201.8148236882007
30
0
10
2457.6390848788596
20
2180.3982927300522
30
0
10
2414.5953104494229
20
2154.4318716733146
30
0
10
2362.1082186821632
20
2128.1915012728191
30
0
10
2297.1118384264773
20
2103.9774260981958
30
0
10
2284.4948368070627
20
2099.277025483746
30
0
10
2271.573559107876
20
2094.7183695514609
30
0
10
2258.4529796929755
20
2090.3512600528293
30
0
10
2211.4598665957942
20
2074.7098722689998
30
0
10
2161.8790693723122
20
2061.5542722993287
30
0
10
2114.652928086015
20
2052.9301610284829
30
0
10
2101.2957729554773
20
2050.49096974649
30
0
10
2088.1770258689698
20
2048.4121696513598
30
0
10
2075.1837529439722
20
2046.6754015949364
30
0
10
2036.8181608217719
20
2041.5471990821277
30
0
10
1999.5390429189156
20
2039.3644295416307
30
0
10
1960.3065107192533
20
2039.8981391013554
30
0
0
LINE
5
222
100
AcDbEntity
8
0
100
AcDbLine
10
1960.3065107192535
20
2039.8981391013549
30
0
11
1936.8031628507231
21
2032.9853559317285
31
0
0
LINE
5
223
100
AcDbEntity
8
0
100
AcDbLine
10
1936.8031628507231
20
2032.9853559317285
30
0
11
1955.3376411902645
21
1969.9684376675777
31
0
0
SPLINE
5
224
100
AcDbEntity
8
0
100
AcDbSpline
70
0
71
3
72
14
73
10
74
0
42
0.000000001
43
0.0000000001
44
0.0000000001
40
-63.246319765845726
40
-63.246319765845726
40
-63.246319765845726
40
-63.246319765845726
40
-55.657074480651104
40
-55.657074480651104
40
-47.159200291579239
40
-47.159200291579239
40
-29.731570722271769
40
-29.731570722271769
40
-0.71171600703452798
40
-0.71171600703452798
40
-0.71171600703452798
40
-0.71171600703452798
10
1955.3376411902645
20
1969.9684376675777
30
0
10
2013.6517901134926
20
1968.9303565385439
30
0
10
2068.9170266940869
20
1973.4205947936903
30
0
10
2192.5200742903962
20
1995.9921284158013
30
0
10
2260.1882824274003
20
2015.5218756516965
30
0
10
2447.3896497582118
20
2085.262805277453
30
0
10
2531.8403082958966
20
2140.4384507829313
30
0
10
2689.550649620312
20
2269.6169625183979
30
0
10
2751.7288283645548
20
2359.9405921343223
30
0
10
2798.1158502835196
20
2445.481078847321
30
0
0
LINE
5
225
100
AcDbEntity
8
0
100
AcDbLine
10
2798.1158502835196
20
2445.481078847321
30
0
11
2795.2941743452757
21
2455.0747301282217
31
0
0
LINE
5
226
100
AcDbEntity
8
0
100
AcDbLine
10
2795.2941743452757
20
2455.0747301282217
30
0
11
2781.1435387059469
21
2450.9127581193115
31
0
0
CIRCLE
5
227
100
AcDbEntity
8
0
100
AcDbCircle
10
2399.2921042209286
20
2114.8237151228468
30
0
40
14.999999999999996
210
-0
220
0
230
1
0
CIRCLE
5
228
100
AcDbEntity
8
0
100
AcDbCircle
10
2071.6572539953395
20
2015.9691204065271
30
0
40
14.999999999999996
210
-0
220
0
230
1
0
ARC
5
229
100
AcDbEntity
8
0
100
AcDbCircle
10
1934.4323793969256
20
2084.6003693546559
30
0
40
3.2500000000001208
210
0
220
0
230
1
100
AcDbArc
50
-136.38961617173803
51
133.61038382826473
0
LINE
5
230
100
AcDbEntity
8
0
100
AcDbLine
10
1932.0792270745549
20
2082.3586793342197
30
0
11
1921.3995357653339
21
2072.1848553953196
31
0
0
LINE
5
231
100
AcDbEntity
8
0
100
AcDbLine
10
1921.3995357653339
20
2072.1848553953196
30
0
11
1928.2970435205209
21
2064.9443867111013
31
0
0
SPLINE
5
232
100
AcDbEntity
8
0
100
AcDbSpline
70
0
71
3
72
14
73
10
74
0
42
0.000000001
43
0.0000000001
44
0.0000000001
40
-94.67584412385456
40
-94.67584412385456
40
-94.67584412385456
40
-94.67584412385456
40
-71.455394884364125
40
-71.455394884364125
40
-50.413704251048756
40
-50.413704251048756
40
-26.937870903963919
40
-26.937870903963919
40
-0.76371969413937524
40
-0.76371969413937524
40
-0.76371969413937524
40
-0.76371969413937524
10
2734.3316125894953
20
2569.5700454860703
30
0
10
2714.0176798188008
20
2517.6231225130887
30
0
10
2690.1247003965809
20
2469.1734962475211
30
0
10
2629.7038948123031
20
2379.4368096890366
30
0
10
2586.0943477151068
20
2325.2938229011306
30
0
10
2440.5913300135358
20
2204.5983857471056
30
0
10
2342.1452675370297
20
2145.4786296334883
30
0
10
2117.1100018294342
20
2066.1144872918653
30
0
10
2016.1614681262608
20
2060.5251304272961
30
0
10
1928.2970435205209
20
2064.9443867111013
30
0
0
LINE
5
233
100
AcDbEntity
8
0
100
AcDbLine
10
2734.3316125894953
20
2569.5700454860703
30
0
11
2687.8916532188027
21
2618.3191130411897
31
0
0
LINE
5
234
100
AcDbEntity
8
0
100
AcDbLine
10
2687.8916532188027
20
2618.3191130411897
30
0
11
2672.4245724062826
21
2603.5846649678097
31
0
0
SPLINE
5
235
100
AcDbEntity
8
0
100
AcDbSpline
70
0
71
3
72
38
73
34
74
0
42
0.000000001
43
0.0000000001
44
0.0000000001
40
-96.031668053020994
40
-96.031668053020994
40
-96.031668053020994
40
-96.031668053020994
40
-79.226098014837902
40
-79.226098014837902
40
-79.226098014837902
40
-71.455394884364125
40
-71.455394884364125
40
-71.455394884364125
40
-59.17726621475569
40
-59.17726621475569
40
-59.17726621475569
40
-50.413704251048756
40
-50.413704251048756
40
-50.413704251048756
40
-37.399197838588378
40
-37.399197838588378
40
-37.399197838588378
40
-26.937870903963919
40
-26.937870903963919
40
-26.937870903963919
40
-14.643098087861411
40
-14.643098087861411
40
-14.643098087861411
40
-0.76371969413937524
40
-0.76371969413937524
40
-0.76371969413937524
40
0.048210204433938975
40
0.048210204433938975
40
0.048210204433938975
40
3.2639321118774092
40
3.2639321118774092
40
3.2639321118774092
40
3.6218072375119097
40
3.6218072375119097
40
3.6218072375119097
40
3.6218072375119097
10
2672.424572406283
20
2603.5846649678092
30
0
10
2658.9579103189826
20
2568.1684608194464
30
0
10
2644.2127516650935
20
2535.4299870210752
30
0
10
2626.6763217621656
20
2504.0409394017092
30
0
10
2618.5676773999444
20
2489.5270032457674
30
0
10
2609.8571817278253
20
2475.2938935244083
30
0
10
2600.362407968506
20
2461.192301720982
30
0
10
2585.3569282256531
20
2438.9062361956571
30
0
10
2565.890121932388
20
2413.1918318942335
30
0
10
2539.7231461925635
20
2385.1546046495473
30
0
10
2521.0463657588825
20
2365.1429249497314
30
0
10
2498.957592871051
20
2343.9617155843239
30
0
10
2472.629710588968
20
2322.1226134710396
30
0
10
2433.5579001327633
20
2289.7123630315396
30
0
10
2387.7988575721388
20
2258.1705939959243
30
0
10
2338.1680908165163
20
2230.7381470089776
30
0
10
2298.2738635141613
20
2208.6873840025187
30
0
10
2255.8762589721487
20
2189.2794935003717
30
0
10
2212.4608701247562
20
2173.9680040346343
30
0
10
2161.3870402696448
20
2155.9555796716909
30
0
10
2114.5151297216162
20
2145.4484587139082
30
0
10
2070.6529982264365
20
2139.6700151355722
30
0
10
2021.137718092145
20
2133.1468197784811
30
0
10
1975.4124641355136
20
2132.6631391702081
30
0
10
1931.8133403656393
20
2134.8560141882031
30
0
10
1929.1103241462783
20
2134.9919659282414
30
0
10
1926.4073079269176
20
2135.1279176682801
30
0
10
1923.7042917075566
20
2135.2638694083189
30
0
10
1912.9987511331217
20
2135.802318589172
30
0
10
1902.293210558686
20
2136.3407677700256
30
0
10
1891.5876699842511
20
2136.8792169508783
30
0
10
1890.3962589144089
20
2136.939140530651
30
0
10
1889.2048478445665
20
2136.9990641104232
30
0
10
1888.0134367747248
20
2137.0589876901954
30
0
0
LINE
5
236
100
AcDbEntity
8
0
100
AcDbLine
10
1888.0134367747246
20
2137.0589876901959
30
0
11
1886.149825110615
21
2135.2836501441775
31
0
0
LINE
5
237
100
AcDbEntity
8
0
100
AcDbLine
10
1886.149825110615
20
2135.2836501441775
30
0
11
1932.1906893764894
21
2086.9535216770264
31
0
0
CIRCLE
5
238
100
AcDbEntity
8
0
100
AcDbCircle
10
2651.6227465135626
20
2487.1926792563354
30
0
40
14.999999999999996
210
-0
220
0
230
1
0
CIRCLE
5
239
100
AcDbEntity
8
0
100
AcDbCircle
10
2415.402295118181
20
2242.4848409926235
30
0
40
14.999999999999996
210
-0
220
0
230
1
0
CIRCLE
5
240
100
AcDbEntity
8
0
100
AcDbCircle
10
2014.4261481578937
20
2104.5665940205686
30
0
40
14.999999999999996
210
-0
220
0
230
1
0
ARC
5
241
100
AcDbEntity
8
0
100
AcDbCircle
10
1838.2907549848687
20
2191.0273383819267
30
0
40
3.24999999999994
210
0
220
0
230
1
100
AcDbArc
50
-141.38961617170139
51
128.61038382825294
0
LINE
5
242
100
AcDbEntity
8
0
100
AcDbLine
10
1835.7511809587811
20
2188.9992694072562
30
0
11
1824.2331113031435
21
2179.8010970063983
31
0
0
LINE
5
243
100
AcDbEntity
8
0
100
AcDbLine
10
1824.2331113031435
20
2179.8010970063983
30
0
11
1830.4656341469397
21
2171.9808824418446
31
0
0
SPLINE
5
244
100
AcDbEntity
8
0
100
AcDbSpline
70
4
71
5
72
31
73
25
74
0
42
0.000000001
43
0.0000000001
44
0.0000000001
40
0.015576638131230117
40
0.015576638131230117
40
0.015576638131230117
40
0.015576638131230117
40
0.015576638131230117
40
0.015576638131230117
40
0.050000000000000003
40
0.10000000000000001
40
0.15000000000000002
40
0.20000000000000001
40
0.25
40
0.29999999999999999
40
0.34999999999999998
40
0.39999999999999997
40
0.44999999999999996
40
0.49999999999999994
40
0.54999999999999993
40
0.59999999999999998
40
0.65000000000000002
40
0.70000000000000007
40
0.75000000000000011
40
0.80000000000000016
40
0.8500000000000002
40
0.90000000000000024
40
0.95000000000000029
40
1
40
1
40
1
40
1
40
1
40
1
41
1
41
1
41
1
41
1
41
1
41
1
41
1
41
1
41
1
41
1
41
1
41
1
41
1
41
1
41
1
41
1
41
1
41
1
41
1
41
1
41
1
41
1
41
1
41
1
41
1
10
2643.3682977436511
20
2630.0750220913101
30
0
10
2642.0885176041993
20
2625.2709642112291
30
0
10
2638.8254078858145
20
2613.5142157223577
30
0
10
2633.1431025617444
20
2594.8929971378629
30
0
10
2624.2756421151103
20
2569.5608852470723
30
0
10
2611.0307475166883
20
2537.7281252576254
30
0
10
2594.2835481472521
20
2504.1646494205465
30
0
10
2574.2503802782635
20
2470.8894805244026
30
0
10
2549.9272300973435
20
2437.7526579965261
30
0
10
2520.2591950937267
20
2404.6382269440296
30
0
10
2484.3880220791739
20
2371.5402837489587
30
0
10
2441.9055961752583
20
2338.6389259448201
30
0
10
2393.1652067866426
20
2306.3950618596882
30
0
10
2339.1323307871021
20
2275.4866743865814
30
0
10
2281.1609362207541
20
2246.7173279102913
30
0
10
2220.8122773660712
20
2220.9375203355676
30
0
10
2159.6578956362546
20
2198.955458154026
30
0
10
2099.1105920031664
20
2181.4589843734202
30
0
10
2040.2009280516368
20
2168.9022276219548
30
0
10
1983.5574196843675
20
2161.5090956318186
30
0
10
1929.5291398813497
20
2159.3580526676733
30
0
10
1888.513435456769
20
2161.8198004493179
30
0
10
1859.0043884376073
20
2165.9974332229822
30
0
10
1839.8861415950159
20
2169.8144155786263
30
0
10
1830.4656341469397
20
2171.9808824418446
30
0
0
LINE
5
245
100
AcDbEntity
8
0
100
AcDbLine
10
2643.3682977436511
20
2630.0750220913101
30
0
11
2598.0949220204729
21
2686.7669248303355
31
0
0
LINE
5
246
100
AcDbEntity
8
0
100
AcDbLine
10
2598.0949220204729
20
2686.7669248303355
30
0
11
2580.9603306473909
21
2668.9472595184716
31
0
0
SPLINE
5
247
100
AcDbEntity
8
0
100
AcDbSpline
70
0
71
3
72
47
73
43
74
0
42
0.000000001
43
0.0000000001
44
0.0000000001
40
0
40
0
40
0
40
0
40
1.1575040866695399
40
1.1575040866695399
40
1.1575040866695399
40
1.2825040866695399
40
1.2825040866695399
40
1.2825040866695399
40
1.360613351103765
40
1.360613351103765
40
1.360613351103765
40
1.4396140575270473
40
1.4396140575270473
40
1.4396140575270473
40
1.5186319025910842
40
1.5186319025910842
40
1.5186319025910842
40
1.583762617205865
40
1.583762617205865
40
1.583762617205865
40
1.655041244963269
40
1.655041244963269
40
1.655041244963269
40
1.7492465380958298
40
1.7492465380958298
40
1.7492465380958298
40
1.8444503264207996
40
1.8444503264207996
40
1.8444503264207996
40
1.9243722461393504
40
1.9243722461393504
40
1.9243722461393504
40
2.0101750230059263
40
2.0101750230059263
40
2.0101750230059263
40
2.1105038711422077
40
2.1105038711422077
40
2.1105038711422077
40
2.1575040866695399
40
2.1575040866695399
40
2.1575040866695399
40
6.8152365103445671
40
6.8152365103445671
40
6.8152365103445671
40
6.8152365103445671
10
2580.9603306473909
20
2668.9472595184716
30
0
10
2580.0374748250988
20
2665.200904174837
30
0
10
2579.1146190028057
20
2661.4545488312019
30
0
10
2578.1917631805122
20
2657.7081934875673
30
0
10
2571.8455378422168
20
2631.9455395239611
30
0
10
2563.5491469376807
20
2606.4994133970013
30
0
10
2553.2033868885437
20
2581.7528799965739
30
0
10
2546.738589228934
20
2566.2894118269382
30
0
10
2539.4800119491483
20
2551.1265446693747
30
0
10
2531.1968156139783
20
2536.3020006907677
30
0
10
2522.8190851787858
20
2521.3082678065048
30
0
10
2513.4055771671597
20
2506.6699579246419
30
0
10
2502.2512492942983
20
2492.0183453269856
30
0
10
2491.0945015694256
20
2477.3635541662993
30
0
10
2478.1488255106751
20
2462.6470862562392
30
0
10
2462.5840174599507
20
2447.5897986271193
30
0
10
2449.7546740329808
20
2435.1787805507574
30
0
10
2435.1299684909377
20
2422.5401263661474
30
0
10
2418.5543822261893
20
2409.7710144625889
30
0
10
2400.4141691145464
20
2395.7965819763267
30
0
10
2379.9390387074836
20
2381.6760486222852
30
0
10
2357.5292562155319
20
2367.8078768649489
30
0
10
2327.9114002731249
20
2349.4790281382448
30
0
10
2294.9308345411273
20
2331.6091999457553
30
0
10
2260.3852968084975
20
2315.2919080678848
30
0
10
2225.4736060477494
20
2298.8016669113549
30
0
10
2189.0198733714888
20
2283.9212989660778
30
0
10
2153.0076609220864
20
2271.5918727491412
30
0
10
2122.7760367093588
20
2261.2415344945089
30
0
10
2092.8733448295729
20
2252.6916292824349
30
0
10
2064.0822273631729
20
2246.1976016619037
30
0
10
2033.1725865986814
20
2239.2257270516338
30
0
10
2003.5380045203506
20
2234.6159785637847
30
0
10
1975.5807071469844
20
2232.3408992186683
30
0
10
1942.8903497377482
20
2229.680657925207
30
0
10
1912.4874193969454
20
2230.1939533584405
30
0
10
1884.3214228662057
20
2233.5794522787887
30
0
10
1871.1267342788451
20
2235.1654286144062
30
0
10
1858.4145096129787
20
2237.3806071463196
30
0
10
1846.154254244957
20
2240.2001407155913
30
0
10
1831.0234422839717
20
2243.6798261686031
30
0
10
1815.8926303229862
20
2247.1595116216149
30
0
10
1800.7618183620013
20
2250.6391970746272
30
0
0
LINE
5
248
100
AcDbEntity
8
0
100
AcDbLine
10
1800.7618183620016
20
2250.6391970746276
30
0
11
1794.6092693765775
21
2245.7258558668882
31
0
0
LINE
5
249
100
AcDbEntity
8
0
100
AcDbLine
10
1794.6092693765775
20
2245.7258558668882
30
0
11
1836.2626860102002
21
2193.5669124080159
31
0
0
CIRCLE
5
250
100
AcDbEntity
8
0
100
AcDbCircle
10
2573.8890074740111
20
2554.2167706050209
30
0
40
14.999999999999929
210
-0
220
0
230
1
0
CIRCLE
5
251
100
AcDbEntity
8
0
100
AcDbCircle
10
2331.9537690264733
20
2318.1596800497614
30
0
40
14.999999999999929
210
-0
220
0
230
1
0
CIRCLE
5
252
100
AcDbEntity
8
0
100
AcDbCircle
10
1922.5849750368434
20
2200.7986547870851
30
0
40
14.999999999999929
210
-0
220
0
230
1
0
CIRCLE
5
253
100
AcDbEntity
8
0
100
AcDbCircle
10
1486.8138817819088
20
2015.6180033287171
30
0
40
25
210
-0
220
0
230
1
0
LWPOLYLINE
5
254
100
AcDbEntity
8
0
100
AcDbPolyline
90
4
70
1
43
0.0
10
1736.8138817819088
20
1965.6180033287162
10
1736.8138817819088
20
2085.6180033287155
10
1386.8138817819088
20
2085.6180033287164
10
1386.8138817819088
20
1965.6180033287169
0
CIRCLE
5
255
100
AcDbEntity
8
0
100
AcDbCircle
10
1486.8138817819088
20
2015.6180033287171
30
0
40
25
210
-0
220
0
230
1
0
CIRCLE
5
256
100
AcDbEntity
8
0
100
AcDbCircle
10
1586.8138817819088
20
2015.6180033287164
30
0
40
25
210
-0
220
0
230
1
0
CIRCLE
5
257
100
AcDbEntity
8
0
100
AcDbCircle
10
1686.8138817819088
20
2015.6180033287164
30
0
40
25
210
-0
220
0
230
1
0
LWPOLYLINE
5
258
100
AcDbEntity
8
0
100
AcDbPolyline
90
4
70
1
43
0.0
10
1568.5013158192464
20
2405.8703456106055
10
2084.6524564746087
20
2703.8703456108669
10
1936.6524564744734
20
2960.213865130982
10
1420.5013158191109
20
2662.2138651307205
0
ENDSEC
0
SECTION
2
OBJECTS
0
DICTIONARY
5
C
100
AcDbDictionary
3
ACAD_GROUP
350
D
3
ACAD_MLINESTYLE
350
17
0
DICTIONARY
5
D
100
AcDbDictionary
0
DICTIONARY
5
1A
330
C
100
AcDbDictionary
0
DICTIONARY
5
17
100
AcDbDictionary
0
ENDSEC
0
EOF
